a b c d e f g h i j k l m n o p q r s t u v w x y z 0-9

Venció

Marcos Witt

			
ESTA LO SAQUE DEL DE VENCIO SI LES GUSTA VOTEN LA CALIDAD
PARA QUE NO LO QUITEN

T=GOLPE C/PULGAR   P=LATIGAZO jalar DE CUERDA
S=DESLIZAR A LA SIG NOTA

G--------------------------------
D------2---4-4--2--------------
A--4----------------4--2--------
E---------------------------------
   SE REPITE DURANTE EL CORO

EN LA ESTROFA:
G---------------------------------------------------
D---------------------4P---4P--------------7P---7P----7P-7P
A-4T---4T-4T-------------------------------------------
E--------------6TS-2T----2T-----2T-3T-4T-5T--5T----4T

EN EL PAP PAP PARARARAP PAP.... 1 PARTE
TOCARLO RAPIDO

G--------------------------------------------
D-----------------2---2------2S-4---------
A--4-4---4-2-4----4------4------------------
E----------------------------------------------

EN EL PAP PAP PARARARAP PAP.... 2 PARTE
TOCARLO RAPIDO

G--------------------2-----2--------------------
D-----4-4---4-2-4-----4-------4S-2—----------------
A----------------------------------------4-4----
E----------------------------------------------

FINAL:
G---------0--------1246--------------------------
D----2--4------------------—------------------
A---------------------------------------------
E----------------------------------------------Fuente: Tus acordes