a b c d e f g h i j k l m n o p q r s t u v w x y z 0-9

Te Daré Alabanza Y Honor

Marcos Witt

			
::INTRO::

     F#m         C#7         C#7         F#m
E||--2--2-2--2-|-----------|-----------|-2--2-2--2----|
A||------------|-4--4-4--4-|-4--4-4--4-|--------------|  2 veces
D||------------|-----------|-----------|------------4-|
G||------------|-----------|-----------|--------------|


::ESTROFA 1::

     F#m                     A
E||--2--2-2--2-|-2--2-2--2-|-5--5-5--5-|-5--5-5--5-|
A||------------|-----------|-----------|-----------|
D||------------|-----------|-----------|-----------|
G||------------|-----------|-----------|-----------|

     D           F#m         E           E
E||------------|-2--2-2--2-|-0--0-0--0-|-0--0-0--0---|
A||--5--5-5--5-|-----------|-----------|-------------|
D||------------|-----------|-----------|-----------2-|
G||------------|-----------|-----------|-------------|


TECLADO PARA PASAR A LA ESTROFA 2:

      E||--------|---------7_7--5-0-2-|
      A||-----12_|_12-11-7------------|
      D||--------|--------------------|
      G||--------|--------------------|


::ESTROFA 1:: = ::ESTROFA 2::


::CORO::

    F#m    A          D      E        F#m    A          D      E
E||-2-2--2-5--5---5-|-------------0-|-2-2--2-5--5---5-|-------------0-|
A||-----------------|-5-5--5-7--7---|-----------------|-5-5--5-7--7---|
D||-------------7---|---------------|-------------7---|---------------|
G||-----------------|---------------|-----------------|---------------|

    F#m              E                F#m               E
E||-2-2--2-2--2---2|-0-0--0-0-----0-|-2-2--2-2--2---2-|-0--0-0--0--0---|
A||----------------|------------7---|-----------------|----------------|
D||-------------4--|----------------|-------------4---|--------------7-|
G||----------------|----------------|-----------------|----------------|


::INTRO 2::

     F#m         C#7                     F#m
E||--2--2-2--2-|-----------|-----------|-2------------|
A||------------|-4--4-4--4-|-4--4-4--4-|------4s12s4--|  2 veces
D||------------|-----------|-----------|--------------|
G||------------|-----------|-----------|--------------|


::ESTROFA 1::

::ESTROFA 2::

::CORO::

::BRIDGE::

E||-----------------|-2----------------|------------0_|_0-0-0-0-0-0-0-0|
A||--5------------5-|---4--4---------4-|-5------------|----------------|
D||----7--7-7---7---|--------4-6-6-4---|---7------7---|----------------|
G||-----------7-----|------------------|-----7--6-----|----------------|


::INTERMEDIO:: = ::COROS::

::OUTRO::

E||-0-2--0-2--0-2--0-2-|-0-2--0-2--0-2------|
A||--------------------|----------------4---|  7 veces
D||--------------------|------------------2-|
G||--------------------|--------------------|


::FINAL::

E||-----------|--------0---7-9---------|---2---2______|_2-----------||
A||-5-5----5--|-7-7--7---------7-9---9-|--------------|-------------||
D||------7----|--------------------7---|--------------|-------------||
G||-----------|------------------------|--------------|-------------||

Saludos a todos y que Dios los bendigo grandemente.

Sugerencias o preguntas, gustoso los atenderé.Fuente: Tus acordes