a b c d e f g h i j k l m n o p q r s t u v w x y z 0-9

Sana Nuestra Tierra

Marcos Witt

G
Em
C
Am
D
F
			
 Intro [se repite 2 veces]:
e|--------------|--------------|--------|--------|--------||
B|--------------|--------------|--------|--------|--------||
G|--7-----------|--7-----------|--7--5--|--0--7--|--5-----||
D|-----5--7--9--|-----5--7--9--|--------|--------|-----7--||
A|--------------|--------------|--------|--------|--------||
E|--------------|--------------|--------|--------|--------||

Al mismo tiempo:
// G - Em - C - Am ? D //


Estrofa:
G       Em       C
Vengo a Ti, guíame
      D           G
Santifícame en Ti
             Em           C
Yo quiero andar en Tu verdad
G      Em      C
Tómame, abrázame
                         Am
Mi corazón hoy vuelve a Ti
        D
Solo a Ti


Pre-Coro:
 G                  Em
Quiero humillarme, buscar Tu rostro
 C                  Am        D
Hoy me arrepiento delante de Ti
 G                  Em
Vengo a invocarte, inclina Tu oído
   C                Am     D     
Escucha y perdona mi rebelión


Coro:
 Am       G      D
//Sana nuestra Tierra//


Intro


Estrofa


Pre-Coro


Coro


Puente:
C        F          G
Escucha hoy mi oración
C        F          G
A Ti levanto mi clamor


Solo: //// C ? D ? Em ? D ////


Pre-Coro


Coro


Final:
e|--------------|--------------|-----------|--------|-----|-----||
B|--------------|--------------|-----------|--------|-----|-----||
G|--7-----------|--7-----------|--7--5--0--|--7--5--|-----|-----||
D|-----5--7--9--|-----5--7--9--|-----------|--------|--7--|--5--||
A|--------------|--------------|-----------|--------|-----|-----||
E|--------------|--------------|-----------|--------|-----|-----|| 

Fuente original ATAME [www.atame.org]
Colaborador original: Eliel Chang [stringskid@atame.org]

Fuente: tusacordes.com