a b c d e f g h i j k l m n o p q r s t u v w x y z 0-9

Quiero Escuchar

Marcos Witt

G
D
C
Am
Am7
E
A
Bm
			
ESPERO QUE LES SIRBA CUALKER DUDA ECRIBAN AL MAIL: f.aguero.u@hotmail.com



INTRO: //  G - D - C - D  //


G                  D
Quiero escuchar tu dulce voz

   C                         D
Rompiendo el silencio en mi ser

G                  D
Se que me haría estremecer

      C             D
Me haría llorar o reír

      C                D
Y caería rendido ante Ti


  G            D
Y no podría estar ante Ti

      C                    Am          D
Escuchándote hablar sin llorar como un niño

   G          D
Y pasaría el tiempo así

        C
Sin querer nada más

     Am           D        G
Nada más que escucharte hablar


[Antes del puente se repite todo incluyendo el INTRO]


PUENTE:
------------------------------------------
Bbmaj7 - FMaj7 - Bbmaj7 - C/D

Bbmaj7 - Am7 - Dsus4 - E - Esus4 - E

e----10/12/13-12----------13-12-13-12------------------10-10--
B-13-------------13-10-13-------------13-10------10-13--------
G---------------------------------------------12--------------

e-10-10-13-13-13-15-12-15-------------10-------------10-13-10-13--
B-------------------------13-10-13-13----10-------13-----------------
G-------------------------------------------12-10--------------------

e-13/17-15-13-15----------------------------------------15-14-17----20U-
B-----------------15-13----13-13-13-13-13-13-15-13-15-15---------15-----
B-----------------------15----------------------------------------------

[/]: SE DESLIZA ACIA LA OTRA CUERDA
[U]:SE ESTIRA LA CUERDA HACIA ARRIBA
   PARA SUBIR UN POCO DE TONO LA NOTA
------------------------------------------


  A            E
Y no podría estar ante Ti

      D                   Bm           E
Escuchándote hablar sin llorar como un niño

   A          E
Y pasaría el tiempo así

        D
Sin querer nada más

        Bm       E
Sin querer nada más

  A            E
Y no podría estar ante Ti

      D                    Bm           E
Escuchándote hablar sin llorar como un niño

   A          E
Y pasaría el tiempo así

        D
Sin querer nada más

     Bm          E        A 
Nada más que escucharte hablar




ENDING:   A - E - D - E


[AQUÍ LES DEJO COMO SE HACE LAS NOTAS QUE SE TOCAN EN ESTA TRANSCRIPCIÓN]

Dsus9    Dsus4    Bbmaj7   FMaj7     C/D       Am7      G         A 
X00230   X00233   113231   X33210   X55550   002010   320033    X02220

Esus9    Esus4     E         D         Bm        C        Am
779977   022200  O221OO    XX0232    X24432    X32010   X02210

Fuente: Tusacordes