a b c d e f g h i j k l m n o p q r s t u v w x y z 0-9

Quiero Cantar Una Linda Cancion

Marcos Witt

E
C#m
A
F#m
B
G#m
			
 INTRO
e------7-7--5-4-----------5-5--5-4------------------
B--------------7-5-4--------------7-5-5--7-5-4------
G---4-4-------------6--4-4--------------------------
D---------------------------------------------------
A---------------------------------------------------
E---------------------------------------------------

e------7-7--5-4---------4-5-7-9-----5-4-------------
B--------------7-5-4---7-------5-7-----7-5----------
G---4-4-------------6---------------------4---------
D---------------------------------------------------
A---------------------------------------------------
E---------------------------------------------------


  E                C#m                A          F#m      B
Quiero cantar una linda cancion, de Aquel que mi vida cambio
   E                C#m              A       F#m        B
quiero cantar una linda cancion de Aquel que me transformo
       E      C#m       A   F#m     Bsus4  B
Es mi amigo Jesús, Es mi amigo mas fiel
       G#m        C#m      A  F#m    B
El es Dios, El es Rey, Es Amor y Verdad
        E        C#m       A   F#m    Bsus4
Solo en El, encontre, esa paz que busque
        E       C#m    A     B    E
Solo en El, encontre, la felicidad. 

Fuente original ATAME [www.atame.org]
Colaborador original: camilo acuña P [kmilo_1986@msn.com]

Fuente: tusacordes.com