a b c d e f g h i j k l m n o p q r s t u v w x y z 0-9

El Volverá

Marcos Witt

			
Hola como están espero que bien  esta rola esta chidisima a mí me gusta mucho es una 
de mis favoritas disfrútenla

Intro 2  beses y acaba es G 

E--------------/-7--5--3--/---------3--/-3----3--3--3----3--/
A--5--7--7--3--/----------/-5--7--7----/--------------------/
D--------------/----------/------------/----5-----------3---/
G -------------/----------/------------/--------------------/

Verso  
                2 beses  
E-----2--2--0--/--3--3--5--/-----------5--/--5--0--2--3----/----------/
A--5-----------/-----------/-2--5--5------/----------------/-3--3--3--/
D--------------/-----------/--------------/----------------/----------/
G--------------/-----------/--------------/----------------/----------/

E-----------------3--3----3--/ en la segunda---------5---/    
A--5--2--2--/-3--------------/vuelta  acaba -------------/
D-----------------------5-----/en  A OK     ----7--7-----/
G-----------------------------/             -------------/

Coro

E---------3--3--5--/-5-----------5---/-7-7-7-7-5--3-----/-3----3--3-----5---/
A—5--5-------------/-------7---------/------------------/-------------------/
D------------------/----7-----7------/------------------/----5-------5------/
G------------------/-----------------/------------------/-------------------/

E---------3--3--5-/-5-----------5--/-7-7-7-7-5--3-/-0-0-0-0-0-----/
A—5--5------------/-------7--------/--------------/---------------/
D-----------------/----7-----7-----/--------------/------------2--/
G-----------------/----------------/--------------/---------------/




E--2-2-2-2-2-2-------/-3-3---------3--/------------5---/
A--------------------/----------------/----------------/
D----------------4---/-------5--5-----/-7-7--7---------/
G--------------------/----------------/----------------/

Vuelve alo de el principio 

 Es lo mismo  en la parte del solo de guitarra es esto

E7-5-7-7-5-3-2-0-2-5---------/-7-5-7-7-5-3--2-0----------/
A-------------------------5--/---------------------5-4---/
D----------------------------/---------------------------/
G----------------------------/---------------------------/

E  0-0-0-0-0-/-2-2-2-2-2-/-3-3-3-3-3-/-2-2-2-2-2-/-0-0-0-0-0-0-/

E  -2-2-2-2-2-/-3-3-3-3-3--/-7-7-7-7-/-3-3-3-3-3-/-5-5-5-5-5-5/

Luego ahí un silencio con la batería al entrar devuelta al coro es esto 

E-----------5--3--3-3-3-3---3------/                
A-2------2-------------------------/       coro 
D-------------------------5--------/
G----------------------------------/

El fanal es lo mimo del pripisio ok 
Alguna duda o comentario o alguna bendición que tengan mela mandan por correo 
y luego nos ponemos de acuerdo ok adiós  que Dios les bendigaaaaaaa

Saludos ha Andrea de Antofagasta /ChileFuente: Tus acordes