a b c d e f g h i j k l m n o p q r s t u v w x y z 0-9

Dios De Pactos

Marcos Witt

			

  En la parte final del coro se puede apreciar el bajo asi que escuchenlo para
  que se puedan adaptar a la cancion.

  El bajo esta en tono de E asi si se lo saben en otro tono solo suban o bajen el
  tono del bajo o la guitarra


  Dios de pactos.......

  E--------------------7-------
  A-7----7-9------------7------
  D---------7-7-6-4-4-4--------
  G----------------------------

  E--------------------7-----
  A-7----7-9------------7----
  D---------7-7-6-4-4-4------
  G--------------------------


  En la intimidad...........

  E-----------------3h5-----------------------------7
  A-3---3-5------------3---3-5-----------3---3-3-2---
  D--------5-4-2-2-2----------5-4-2-2-2--------------
  G--------------------------------------------------

  Se vuelve a repetir Dios de pactos.........Fuente: Tus acordes