a b c d e f g h i j k l m n o p q r s t u v w x y z 0-9

Dios, Desciende Aquí

Marcos Witt

			
Intro
e:--------------------------------------9-||
B:---------6-9---7-6-----6----------6-9---||
G:---6-8-------------8-6--------6-8-------||
D:-6--------------------------6-----------||
A:----------------------------------------||
E:----------------------------------------||


Lo siguiente va despues de el primer "Salvador, Dios de amor,
Deciende Aqui" Despues se sube de termino de C# a D.

e:-----------------------------------------------||
B:-----6-7-6--------------6-7-6------------------||
G:-6-8---------8--6---6-8---------8-6--------7-7-||
D:------------------8-----------------8--6-8-----||
A:-----------------------------------------------||
E:-----------------------------------------------||
Antes del solo de la guitarra va esto mismo solo que se le
aumenta uno a cada numero.

Solo:
e:-------------------------------------------------------------
B:----15-15-14-14----------------------------------------------
G:-14-------------14-14-11-11-9-7-6/7--7-7-6-6-----------------
D:---------------------------------------------7-7-------------
A:-------------------------------------------------9-9-7-5-4-5-
E:-------------------------------------------------------------

e:---------------------------------------14-15-17-17
B:---------------------------------14-15------------
G:---------------------11-12-14-14------------------
D:---------------14-12------------------------------
A:-7-5-9-7-14-12------------------------------------
E:--------------------------------------------------

e:----------------------------------||
B:----------------------------------||
G:----------------------------------||
D:----11-12--------11-12---12-11-12-||
A:-12-------14--14------------------||
E:----------------------------------||
Antes de terminar la cancion se vuelve hacer lo mismo que se
hace antes del solo.

Esta es mi primera transcripcion.
Bendiciones a la iglesia Centro Cristiano De Belmopan en Belice.Fuente: Tus acordes