a b c d e f g h i j k l m n o p q r s t u v w x y z 0-9

Alabanzas Al Rey

Marcela Gandara

			
e|----------------------------------------------------------------|
B|-0h1---3-4--|--0h1---4-3--|--1-3-4-3-1--------------------------|
G|----------------------------------------3-1-0-3-----------------|
D|----------------------------------------------------------------|
A|----------------------------------------------------------------|
E|----------------------------------------------------------------|

e|---------3------------------------------------------------------|
B|-3h4---6---|-3h4---6-3-|-4-3---3-4-4/6-4------------------------|
G|-----------------------------5------------3-5s------------------|
D|----------------------------------------------------------------|
A|----------------------------------------------------------------|
E|----------------------------------------------------------------|

las rayas son los silencios sale kalifiken

Fuente: tusacordes.com