a b c d e f g h i j k l m n o p q r s t u v w x y z 0-9

El Gato Montes

Manuel Penella

			
Les recomiendo escuchar la melodia primero

E|-12--10-12-13----12-10-8---7---|-5---4--5--7-----7--8--10--12--|---------------10------------------|
B|-------------------------------|-------------------------------|-13-----12-13------12--13------12--|
G|-------------------------------|-------------------------------|-----14--------------------14------|
D|-------------------------------|-------------------------------|-----------------------------------|
A|-------------------------------|-------------------------------|-----------------------------------|
E|-------------------------------|-------------------------------|-----------------------------------|


E|--------|--------|--------|--------|--------|--------------------10--12--13--|-13-15-13-12-----12--|
B|--------|--------|--------|--------|--------|-12--13-12-10-12----------------|---------------------|
G|--------|--------|--------|--------|--------|--------------------------------|---------------------|
D|-14-----|--------|--------|--------|--------|--------------------------------|---------------------|
A|--------|--------|--------|--------|--------|--------------------------------|---------------------|
E|--------|--------|--------|--------|--------|--------------------------------|---------------------|


E|-13-12-10-------------|------------------|--------------------10--12--13--|-13-15-13-12-----12--|
B|-------------12--13---|----10-12-----12--|-12--13-12-10-12----------------|---------------------|
G|----------------------|-12---------------|--------------------------------|---------------------|
D|----------------------|------------------|--------------------------------|---------------------|
A|----------------------|------------------|--------------------------------|---------------------|
E|----------------------|------------------|--------------------------------|---------------------|


E|-12--10-9--10----9---10--12--|-10-12-10-8------8---|-7---5--4--5-----4---5---7---|
B|-----------------------------|---------------------|-----------------------------|
G|-----------------------------|---------------------|-----------------------------|
D|-----------------------------|---------------------|-----------------------------|
A|-----------------------------|---------------------|-----------------------------|
E|-----------------------------|---------------------|-----------------------------|


E|-4--5--4-------------|--------|--------|--------|--------|------4---7---10---13---|
B|----------5------5---|--------|--------|--------|--------|-5----------------------|
G|---------------------|--------|--------|--------|--------|------------------------|
D|---------------------|--------|--------|--------|--------|------------------------|
A|---------------------|--------|--------|--------|--------|------------------------|
E|---------------------|--------|--------|--------|--------|------------------------|


E|-12---10--8---7----5---7---|------4---7---10--13---16-13-|-12---10--8---7----5----|
B|---------------------------|-5---------------------------|------------------------|
G|---------------------------|-----------------------------|------------------------|
D|---------------------------|-----------------------------|------------------------|
A|---------------------------|-----------------------------|------------------------|
E|---------------------------|-----------------------------|------------------------|


E|-13--15---13--12--10--13--10--|-12--12---12--13--12--10--8---|-10---10---12-------------10---|
B|------------------------------|------------------------------|----------------13---13--------|
G|------------------------------|------------------------------|-------------------------------|
D|------------------------------|------------------------------|-------------------------------|
A|------------------------------|------------------------------|-------------------------------|
E|------------------------------|------------------------------|-------------------------------|


E|-7--------------|------4---7---10---13---|-12---10--8---7----5---7---|------4---7---10--13---15-13-|
B|-----5---5------|-5----------------------|---------------------------|-5---------------------------|
G|----------------|------------------------|---------------------------|-----------------------------|
D|----------------|------------------------|---------------------------|-----------------------------|
A|----------------|------------------------|---------------------------|-----------------------------|
E|----------------|------------------------|---------------------------|-----------------------------|


E|-12---10--8---7----5----|-13--15---13--12--10--13--12--|-10--8------8---|-10--12---10--8---7---10--8---|
B|------------------------|------------------------------|----------------|------------------------------|
G|------------------------|------------------------------|----------------|------------------------------|
D|------------------------|------------------------------|----------------|------------------------------|
A|------------------------|------------------------------|----------------|------------------------------|
E|------------------------|------------------------------|----------------|------------------------------|


E|-7---5------5---|-7---7--8--10----10-12-13--15--|-12-----|--------------------10-8---7---|
B|----------------|-------------------------------|--------|-----------12----13------------|
G|----------------|-------------------------------|--------|-----13-14---------------------|
D|----------------|-------------------------------|--------|-14----------------------------|
A|----------------|-------------------------------|--------|-------------------------------|
E|----------------|-------------------------------|--------|-------------------------------|


E|-5----4----5------------|
B|------------------------|
G|------------------------|
D|------------------------|
A|------------------------|
E|------------------------|Fuente: Tus acordes