a b c d e f g h i j k l m n o p q r s t u v w x y z 0-9

Vivir Sin Aire

Mana

Gm
Cm
Dm
G
C
Em
			
Introducción original de la canción [guitarra]
                                     [Sergio]
  Gm    Sim7      Cm       Dm    

E-3------5-2----2---0---0----0-2----33/5/0-----|
B--0--------3----3---1---1------3---33/5/0-----|
G---0--------2----2---0---0------2-------------|
D----------------------------------------------|
A------0-2-2----2---3---3----0-----------------|
E-3---3----------------------------------------|
                          Un poco rápido esta parte

E-3------5-2----2---0---3--322-0---------------------|
B--0--------3----3---1-----333-1-310-----------------|
G---0--------2----2---0----------420-----------------|
D----------------------------------------------------|
A------0-2-2----2---3---3----------------------------|
E-3---3----------------------------------------------|



Riff [1]

E-3/5-55-32-22320----2-32-3--------------------------|
B-3/5-55-33-33331-33--3--3---------------------------|
G-----------------44---------------------------------|
D----------------------------------------------------|
A----------------------------------------------------|
E----------------------------------------------------|



Riff [2]

E-----3----353---------------------------------------|
B-3/5---35-353-3555--5555-33-11----------------------|
G-------45-----4555--5555-44-22----------------------|
D----------------------------------------------------|
A----------------------------------------------------|
E----------------------------------------------------|


Riff[3]
	ReM	DoM
E----------------------------------------------------|
B-7-8--10-8-7?5-8-7-5--3-5-3-1-0---1-----------------|
G----------------------------------------------------|
D----------------------------------------------------|
A----------------------------------------------------|
E----------------------------------------------------|


Riff [4]

E------------0---------------------------------------|
B-01-35-5-78-1---555--333--1-------------------------|
G-00-45-5-77-----555--444--2-------------------------|
D----------------------------------------------------|
A----------------------------------------------------|
E----------------------------------------------------|


Riff [5]

E-----3-5-3------------------------------------------|
B?3-5-------3-5-5-5-----5-5-5-3-3-3-1-0--------------|
G----------------------------------------------------|
D----------------------------------------------------|
A----------------------------------------------------|
E----------------------------------------------------|



Gm        Sim7  Cm     Dm        G Sim7  C  Dm
Como quisiera   poder  vivir  sin aire     Riff [1]


Gm      Sim7  Cm      Dm        G  Sim7  Cm Dm
Como quisiera poder vivir sin agua       Riff[2]


Gm      Sim7  Cm      Dm        Gm  Sim7 Cm Dm
Me encantaría quererte un poco menos     Riff [1]


Gm      Sim7   Cm     Dm        Gm Sim7 Cm Dm
Como quisiera   poder vivir sin ti    Riff [2]

Cm       Dm     Em         Cm
Pero no puedo,    siento que muero

Gm                    Dm
Me estoy ahogando sin tu amor   Riff [3]

Em              Cm             Gm
Como quisiera  poder vivir sin aire

Em              Cm              Dm
Como quisiera  calmar mi aflicción 

 Em             Cm             Gm
Como quisiera  poder vivir sin agua

Em              Cm           Dm
Me encantaría  robar tu corazón 

Se repite la misma introducción sin cambio alguno
[ esto se toca con los mismo acordes de las estrofas anteriores ]


Como pudiera un pez nadar sin agua  Riff [4]

Como quisiera  poder vivir sin ti   Riff  [5]

Pero no puedo, siento que muero
Me estoy ahogando sin tu amor ...     Riff [3]


Como quisiera lanzarte al olvido
Como quisiera guardarte en un cajón 
Como quisiera   borrarte de un soplido 
Me encantaría  matar esta canción  



Esta es la figura final de la canción con todo 
y el requinto [ se escucha mortal ].

E-3-2-0-------2-3-0-0--2--0--------------------------|
B-3-3-1-3---3-3-3-1----3--1--------O-----------------|
G-------4---4-----0----2--0-------0------------------|
D-------------------------0------0-------------------|
A-------------------------------2--------------------|
E------------------------------3---------------------|


Requinto final  [ este arreglo va muy rápido
Tienes que tener un poco de agilidad en tus dedos ]

E-9-10-12-9-10----9------------------------| 1ª CUERDA
B--------------12---10-12-9-10-5-----------| 2ª CUERDA
G---------------------------------7-6------| 3ª CUERDA

SI TE GUSTO LA TABLATURA, ESCRIBEME Y TE PUEDO 
MANDAR OTRAS CANCIONES,PRACTICA MUCHO LA LIRA...

Fuente original: LaCuerda
Colaborador original: pedro damian flores landa
[pdflyvgm@hotmail.com]

Fuente: Tusacordes