a b c d e f g h i j k l m n o p q r s t u v w x y z 0-9

Vivir Sin Aire

Mana

			
INTRO:
e|---------------5---2--------5-------0--------3------2-----3---|
B|-----3-------------3-3----3---3-----1-1----1---1----3-3/5--5/3|
G|-------0-----0-----4----2-------0---0----0-------0--2---------|
D|-------------------4--------------------------------0---------|
A|---------0/2-------2----------------3-------------------------|
E|-----3-------------2------------------------------------------|

e|---------------5---2--------5-------0--------3-----3-3-2-2-0-
B|-----3-------------3-3----3---3-----1-1----1---1---3-3-3-3-1-
G|-------0-----0-----4----2-------0---0----0-------0-----------
D|-------------------4-----------------------------------------
A|---------0/2-------2----------------3------------------------
E|-----3-------------2-----------------------------------------

e-0-------
B-1--3-3--
G----4-4--
D---------
A---------
E---------
Armonica intro

e|---------------5---2--------5-------0--------3------2-----3---|
B|-----3-------------3-3----3---3-----1-1----1---1----3-3/5--5/3|
G|-------0-----0-----4----2-------0---0----0-------0--2---------|
D|-------------------4--------------------------------0---------|
A|---------0/2-------2----------------3-------------------------|
E|-----3-------------2------------------------------------------|

e|---------------5---2--------5-------0--------3---------2------|
A|-----3-------------3-3----3---3-----1-1----1---1-------3-----|
G|-------0-----0-----4----2-------0---0----0-------0-----2-----|
D|-------------------4-----------------------------------0-----
A|---------0/2-------2----------------3-------------------------|
E|-----3-------------2------------------------------------------|

Verso:

G       Bm    C     D             G
Como Quisiera    poder vivir sin aire


e|-------------0------------------0----------------3----------2-3
A|-----3-----3----3-----------------3------------1---1-1-----3---
G|-------0----------0---------4-------4--------0------0----2-----
D|---------0----------------4---4------------------------0-------
A|-----------------------2------------------3--------------------
E|-----3--------------------------------------------------------

e|---3/5-5-5/3-2--2-3-2-0-----2--3-2--3-------------------|
A|---3/5-5-5/3-3--3-3-3-1-1/3--3----3---------------------|
G|--------------------------------------------------------|
D|--------------------------------------------------------|
A|--------------------------------------------------------|
E|--------------------------------------------------------|
G        Bm   C     D             G
como quisiera    poder vivir sin agua

e|-------------0------------------0----------------3----------2-3
A|-----3-----3----3-----------------3------------1---1-1-----3---
G|-------0----------0---------4-------4--------0------0----2-----
D|---------0----------------4---4------------------------0-------
A|-----------------------2------------------3--------------------
E|-----3--------------------------------------------------------

e|--------3--------3-3/5/3------------------------------|
A|------------3--5-3-3/5/3---3-5-----5--3---1-0---------|
G|---2/4------4--5-----------4-5-4/5--5--4--------------|
D|------------------------------------------------------|
A|------------------------------------------------------|
E|------------------------------------------------------|



G        Bm   C      D              G
Me encantaría    quererte un poco menos


e|-------------0------------------0----------------3----------2-3
A|-----3-----3----3-----------------3------------1---1-1-----3---
G|-------0----------0---------4-------4--------0------0----2-----
D|---------0----------------4---4------------------------0-------
A|-----------------------2------------------3--------------------
E|-----3---------------------------------------------------------

e|---3/5-5-5/3-2--2-3-2-0-----2--3-2--3-------------------|
A|---3/5-5-5/3-3--3-3-3-1-1/3--3----3---------------------|
G|--------------------------------------------------------|
D|--------------------------------------------------------|
A|--------------------------------------------------------|
E|--------------------------------------------------------|


G        Bm   C      D            G
como quisiera     poder vivir sin ti...

e|-------------0------------------0----------------3----------0-2
A|-----3-----3----3-----------------3------------1---1-1-----3---
G|-------0----------0---------4-------4--------0------0----2-----
D|---------0----------------4---4------------------------0-------
A|-----------------------2------------------3--------------------
E|-----3---------------------------------------------------------

e|--------3--------3-3/5/3------------------------------|
A|------------3--5-3-3/5/3---3-5-----5--3---1-0---------|
G|---2/4------4--5-----------4-5-4/5--5--4--------------|
D|------------------------------------------------------|
A|------------------------------------------------------|
E|------------------------------------------------------|


CORO:

C       D      Em       C
Pero no puedo, siento que muero

e|---0------0-------2---------2---------------0------------0----|
A|--------1---1--------3--------3---------------3----------1--1-|
G|------0-------0--------2/4------5--------0------0------0------|
D|------------------0--------------------4-------------2--------|
A|---3---------------------------------2-------------3----------|
E|-----------------------------------0--------------------------|
G                         D
me estoy ahogando sin tú amor.

e|------------3----3---3------2-2-3-5-3-2---2-----------------|
A|-----3--------3----3---3----------------5---5-3-------------|
G|-------0--------0----0---0-----------------------5-4-2------|
D|---------0------------------0--------------------------5-4-2|
A|------------------------------------------------------------|
E|-----3------------------------------------------------------|

  Em           C             G
Como quisiera poder vivir sin aire
e|----------0-----------0------------3---------------------------
A|--------3---3-----------1--------3---3--3-------3---------3----
G|------0------0------0----------0-------0----------0---------0--
D|----4-------------2---------------------------------0---------0
A|--2-------------3----------------------------------------------
E|-----------------------------3--------------2/3-------3/2------

 Em          C         D
como quisiera calmar mi aflicción

e|----------0-----------0---------------0-------------0--------
A|--------3---3-----------1-----------3---3--------3----3------
G|------0-------0-----0-------------2-----------2--------------
D|----4-------------2-------------0----------------------------
A|--2-------------3--------------------------------------------
E|0------------------------------------------------------------


  Em         C              G
como quisiera poder vivir sin agua
e|----------0-----------0------------3---------------------------
A|--------3---3-----------1--------3---3--3-------3---------3----
G|------0------0------0----------0-------0----------0---------0--
D|----4-------------2---------------------------------0---------0
A|--2-------------3----------------------------------------------
E|-----------------------------3--------------2/3-------3/2------

  Em           C          D
me encantaría robar tú corazón.

e|----------0-----------0---------2---------|
A|--------3---3-----------1-------3---------|
G|------0-------0-----0-----------2---------| 
D|----4-------------2-------------0---------|
A|--2-------------3-------------------------|
E|0-----------------------------------------|



Intro

G       Bm   C     D            G
Como pudiera    un pez nadar sin agua
e|-------------0------------------0--------3------------0-2-3---|
A|-----3-----3----3-----------------3-----1---------3-----------|
G|-------0----------0---------4-------4--0---------2------------|
D|---------0----------------4---4----------------0--------------|
A|-----------------------2--------------------------------------|
E|-----3--------------------------------------------------------|

e|--------------2-3--0---0-0-0----------------------------|
A|---------3-5--3-3--1---1-1-1--3-3-----------------------|
G|----4-5--4-5------------------4-4--5-4------------------|
D|----5-5----------------------------5-5------------------|
A|--------------------------------------------------------|
E|--------------------------------------------------------|

G       Bm   C      D            G
como pudiera    un ave volar sin alas

e|-------------0------------------0--------3------------0-2-3---|
A|-----3-----3----3-----------------3-----1----------3----------|
G|-------0----------0---------4-------4--0---------2------------|
D|---------0----------------4---4----------------0--------------|
A|-----------------------2--------------------------------------|
E|-----3--------------------------------------------------------|
e|--------7-----5----3---2-3-2-2-0--------2---3-2---3------|
A|-------------------------------------1/3--3-----2--------|
G|----5/7---7-----5----4-----------------------------------|
D|---------------------------------------------------------|
A|---------------------------------------------------------|
E|---------------------------------------------------------|

G       Bm   C     D              G
como pudiera    la flor crecer sin tierra
e|-------------0------------------0--------3------------0-2-3---|
A|-----3-----3----3-----------------3-----1---------3-----------|
G|-------0----------0---------4-------4--0---------2------------|
D|---------0----------------4---4----------------0--------------|
A|-----------------------2--------------------------------------|
E|-----3--------------------------------------------------------|

e|--------------2-3--0---0-0-0---------------3------------|
A|---------3-5--3-3--1---1-1-1--3-3-----------------------|
G|----4-5--4-5------------------4-4--5-4?0/2--------------|
D|----5-5----------------------------5-5?-----------------|
A|--------------------------------------------------------|
E|--------------------------------------------------------|

G       Bm   C    D             G
como quisiera   Poder vivir sin ti... 0h no
e|-------------0------------------0--------3------------0-2-3---|
A|-----3-----3----3-----------------3-----1---------3-----------|
G|-------0----------0---------4-------4--0---------2------------|
D|---------0----------------4---4----------------0--------------|
A|-----------------------2--------------------------------------|
E|-----3--------------------------------------------------------|

e|--------7------5----3----5-7-5-3-2-0------2---3-2---3----|
A|--------------------------------------1/3---3-----2------|
G|----5/7---7-----5----4---5-7-5-4-2-0---------------------|
D|---------------------------------------------------------|
A|---------------------------------------------------------|
E|---------------------------------------------------------|

C       D      Em        C
Pero no puedo, siento que muero
e|---0------0-------2---------2---------------0----------0------|
A|--------1---1--------3--------3---------------3--------1--1---|
G|------0-------0--------2/4------5--------0------0----0------0-|
D|------------------0--------------------4-----------2----------|
A|---3---------------------------------2-----------3------------|
E|-----------------------------------0--------------------------|

G                         D
me estoy ahogando sin tú amor.
e|------------3----3---3------2-2-3-5-3-2---2-----------------|
A|-----3--------3----3---3----------------5---5-3-------------|
G|-------0--------0----0---0-----------------------5-4-2------|
D|---------0------------------0--------------------------5-4-2|
A|------------------------------------------------------------|
E|-----3------------------------------------------------------|

Em             C            G
Como quisiera poder vivir sin aire
e|----------0-----------0------------3---------------------------
A|--------3---3-----------1--------3---3--3-------3---------3----
G|------0------0------0----------0-------0----------0---------0--
D|----4-------------2---------------------------------0---------0
A|--2-------------3----------------------------------------------
E|-----------------------------3--------------2/3-------3/2------

Em            C         D
como quisiera calmar mi aflicción
e|----------0-----------0---------------0-------------0--------
A|--------3---3-----------1-----------3---3--------3----3------
G|------0-------0-----0-------------2-----------2--------------
D|----4-------------2-------------0----------------------------
A|--2-------------3--------------------------------------------
E|0------------------------------------------------------------

Em             C             G
como quisiera poder vivir sin agua
e|----------0-----------0------------3---------------------------
A|--------3---3-----------1--------3---3--3-------3---------3----
G|------0------0------0----------0-------0----------0---------0--
D|----4-------------2---------------------------------0---------0
A|--2-------------3----------------------------------------------
E|-----------------------------3--------------2/3-------3/2------

Em              C          D
me encantaría robar tú corazón.
e|----------0-----------0---------2---------------------------|
A|--------3---3-----------1-------3---------------------------|
G|------0-------0-----0-----------2---------------------------|
D|----4-------------2-------------0---------------------------|
A|--2-------------3-----------------------0-2---0-------------|
E|0-----------------------------------2-3---------3-2-0-------|

Em             C         G
Como quisiera lanzarte al olvido
e|----------0-----------0------------3---------------------------
A|--------3---3-----------1--------3---3--3-------3---------3----
G|------0------0------0----------0-------0----------0--------0---
D|----2-------------2---------------------------------0--------0-
A|--2-------------3----------------------------------------------
E|-----------------------------3--------------2/3-------3/2------

Em               C              D
como quisiera guardarte en un cajón
e|----------0-----------0---------------0-------------0--------
A|--------3---3-----------1-----------3---3--------3----3------
G|------0-------0-----0-------------2-----------2--------------
D|----2-------------2-------------0----------------------------
A|--2-------------3--------------------------------------------
E|0------------------------------------------------------------

Em               C            G
como quisiera borrarte de un soplido
e|----------0-----------0------------3---------------------------
A|--------3---3-----------1--------3---3--3-------3---------3----
G|------0------0------0----------0-------0----------0---------0--
D|----2-------------2---------------------------------0---------0
A|--2-------------3----------------------------------------------
E|-----------------------------3--------------2/3-------3/2------

Em             C            D
me encantaría matar esta canción
e|----------0-----------0-----2----------------------------
A|--------3---3-----------1---3----------------------------
G|------0-------0-----0-------2----------------------------
D|----2-------------2---------0----------------------------
A|--2-------------3----------------------------------------
E|0--------------------------------------------------------

outro

e|--3-2-0----2-3-0--0---3---3--3-------------------------
A|--3-3-1--3-3-3-1-1---2--3----3-------------------------
G|---------4-------------------4-------------------------
D|-----------------------------5-------------------------
A|-----------------------------5-------------------------
E|-----------------------------3-------------------------

Fuente: Tusacordes