a b c d e f g h i j k l m n o p q r s t u v w x y z 0-9

Vivir Sin Aire

Mana

G
Bm
C
D
Em
B
			
 ACORDES:> G Bm C D Em

Bueno la vez pasada realice esta transcripción y cometí el error de no
fijarme que las tablaturas estaban juntas, le agradezco al pata
que lo corrigió pero que no se pase de vivo que al final no modifico nada,
bueno quiero saludar a mis patas Luís miguel, Juan Carlos, José Suni y yo
a y a la Prom. 2005 de Mecánica Automotriz ? Magisterial del Instituto
Honorio Delgado Espinoza. Practiquen esta canción escuchándola, verán que
bien sale. Suerte ...


**********************************************************************

INTRO:
e|-----3----------5---2------5-------0------3---------2-------3--------|
A|-----3--------------3----3---3-----1----1---1-------3--3-5----5/3----|
G|-------0-----0------2--2-------0---0--0-------0-----2----------------|
D|----------------------------------------------------0----------------|
A|---------0/2-----------------------3---------------------------------|
E|-----3--------------2------------------------------------------------|

e|-----3--------------2------5-------0------3-----3-3--2-2?-0-0---------|
A|-----3--------------3----3---3-----1----1---1---3-3--3-3?-1-1-?3-3----|
G|-------0------0-----2--2-------0---0--0------------------------4-4----|
D|----------------------------------------------------------------------|
A|---------0/2-----------------------3----------------------------------|
E|-----3--------------2-------------------------------------------------|

e|-----3----------5---2------5-------0------3---------2-------3---------|
A|-----3--------------3----3---3-----1----1---1-------3--3-5----5/3-----|
G|-------0-----0------2--2-------0---0--0-------0-----2-----------------|
D|----------------------------------------------------0-----------------|
A|---------0/2-----------------------3----------------------------------|
E|-----3--------------2-------------------------------------------------|

e|-----3----------5---2------5-------0------3---------2-----------------|
A|-----3--------------3----3---3-----1----1---1-------3-----------------|
G|-------0-----0------2--2-------0---0--0-------0-----2-----------------|
D|----------------------------------------------------0-----------------|
A|---------0/2-----------------------3----------------------------------|
E|-----3--------------2-------------------------------------------------|


G       Bm    C     D             G     [Bm C D]
Como Quisiera    poder vivir sin aire
G        Bm   C     D             G     [Bm C D]
como quisiera    poder vivir sin agua
G        Bm   C      D              G   [Bm C D]
Me encantaría    quererte un poco menos
G        Bm   C      D            G     [Bm C D]
como quisiera     poder vivir sin ti...


CORO:

C       D      Em        C
Pero no puedo, siento que muero
G                         D   [D4 D D2 D]
me estoy ahogando sin tú amor.
Em              C             G   [D]
Como quisiera poder vivir sin aire
Em             C         D        [D4]
como quisiera calmar mi aflicción
Em             C              G   [D]
como quisiera poder vivir sin agua
Em              C          D
me encantaría robar tú corazón.


G Bm C D [2v] [o B gustan repitan el arpegio del intro]

G       Bm   C     D            G          [Bm C D]
Como pudiera    un pez nadar sin agua
G       Bm   C      D            G         [Bm C D]
como pudiera    un ave volar sin alas
G       Bm   C     D              G        [Bm C D]
como pudiera    la flor crecer sin tierra
G       Bm   C    D             G          [Bm C D]
como quisiera   Poder vivir sin ti... 0h no

C       D      Em        C
Pero no puedo, siento que muero
G                         D  [D4 D D2 D]
me estoy ahogando sin tú amor.
Em              C            G   [D]
Como quisiera poder vivir sin aire
Em             C         D        [D4]
como quisiera calmar mi aflicción
Em             C             G  [D]
como quisiera poder vivir sin agua
Em              C          D     [D]
me encantaría robar tú corazón.


Em              C         G     [D]
Como quisiera lanzarte al olvido
Em               C              D [D]
como quisiera guardarte en un cajón
Em               C            G [D]
como quisiera borrarte de un soplido
Em             C            D
me encantaría matar esta canción


G Bm C D G

 

Fuente: tusacordes.com