a b c d e f g h i j k l m n o p q r s t u v w x y z 0-9

Vivir Sin Aire

Mana

G
Bm
C
D
Em
			
 INTRO:
   G     Bm        C        D
e----5------5-2------3----------3-----------
B--------------0-------------3/5-5-0--------
G       
Cómo quisiera
Bm              C    D  
poder vivir sin aire
e-3/5--5-5-3-2--2-3-2-0--0-0-2-3
B-------------------------3-----

G
cómo quisiera
Bm             C    D
poder vivir sin agua
e--------0-3-5-3-0-000-----
B----8--3---------3---331-0
G-3/7----------------------

G
Me encantaria
Bm               C    D 
quererte un poco menos
e-3/5--5-5-3-2--2-3-2-0--0-0-2-3
B-------------------------3-----

G
cómo quisiera
Bm            C   D
poder vivir sin ti
e--------0-3-5-3-0-000-----
B----8--3---------3---331-0
G-3/7----------------------

C            D
Pero no puedo
e----3---
B-3/5-5-0
Em
siento que muero
C                 G          D
me estoy ahogando sin tu amor
Em
Cómo quisiera
C              G
poder vivir sin aire  E--0-2-3-- 

Fuente: tusacordes.com