a b c d e f g h i j k l m n o p q r s t u v w x y z 0-9

Vivir Sin Aire

Mana

			
Intro:*2
   
  G                   Bm7               C              D 
E-3--------------5----2-----4-----------0------3-------2-------3-----------
B---3-------------------3-----3-----------1------1--------3/5-----5--------
G-----0-------------------2-----2-----------0------0-----------------------
D------------------------------------------------------0-------------------
A-----------0-2--2----2-------------2---3----------------------------------
E-3-------3----------------------------------------------------------------
                                                                    
  G                   Bm7               C             D       D7         
E-3--------------5----2-----4-----------0------3------0-0-0-0--------------
B---3-------------------3-----3-----------1------1----3-3-3-3-3-3-3--1-1--0
G-----0-------------------2-----2-----------0------0----------2-2-2--2-2--0
D--------------------------------------------------------------------------
A-----------0-2--2----2-------------2---3----------------------------------
E-3-------3----------------------------------------------------------------
Cuando se toca el Intro por segunda ocasion se toca D=x00232
                                                                                 
...Poder vivir sin aire...                                                     
E------------------------------1----3------1---
B-3/5--5-5--3-1-3--2-1-0--2/3----2----3--------
G---------------------------------------0------
D----------------------------------------------
A----------------------------------------------
E----------------------------------------------
                                                
...Poder vivir sin agua....                     
E-----1--0-0-0-0--1-3-1-0----------------------
B-2/3----3-3-3-3--3-3-3-3--4-4-4--2-2--2/1-----
G--------------------------4-4-4--3-3--3/2-----
D----------------------------------------------
A----------------------------------------------
E----------------------------------------------

*Durante la cancion hay dos guitarras una Puntea y la otra toca el Ritmo...
Los acordes del Coro son:Em , C , D , y G cada dos versos

Espero que la disfruten, Faltan algunos Solos que no estoy muy seguro de como son
 asi que los dare luego...

Esto es lo que interpreto de la cancion...dudas haganmela saber

Fuente original ATAME [www.atame.org]
Colaborador original: ]

Fuente: tusacordes.com