a b c d e f g h i j k l m n o p q r s t u v w x y z 0-9

Vivir Sin Aire (unplugged)

Mana

			
>INTRO<
e|-3----3-5-2---5--0---3--2------3--
b|-3---3--0-0--3-3-3--1-0-0-3-3s5-5-
g|-0--0-------4---4--0---0----------
d|---0-------0------0---------------
a|--2-------------------------------
E|-3--------------------------------

e|-3----3-5-2---5--0---3--3-2-2-0-0---
b|-3---3--0-0--3-3-3--1-0-3-3-3-1-1-3-
g|-0--0-------4---4--0---0---------4--
d|---0-------0------0-----------------
a|--2---------------------------------
E|-3----------------------------------

e|-3----3-5-2---5--0---3--2------3--
b|-3---3--0-0--3-3-3--1-0-0-3-3s5-5-
g|-0--0-------4---4--0---0----------
d|---0-------0------0---------------
a|--2-------------------------------
E|-3--------------------------------

e|-3----3-5-2---5--0---3---2-
b|-3---3--0-0--3-3-3--1-0--3-
g|-0--0-------4---4--0-----2-
d|---0-------0------0--------
a|--2------------------------
E|-3-------------------------

como quisiera poder vivir sin aire...
riff 1:
e|-3/5-5-5/3-3-2-2-2-3-2-0---2-3-2-3-
b|-3/5-5-5/3-3-3-3-3-3-3-1--3-3---3--
g|-------------------------4---------

como quisiera poder vivir sin agua...
riff 2:
e|----3-----3-5-3-------------------
b|-3/5--3-5-3-5-3-3-5---5-5-3-3-1/0-
g|------4-5-------4-5---5-5-4-4-2/0-

me encantaria quererte un poco menos...>riff 1<
como quisiera poder vivir sin ti...>riff 2<
pero no puedo...siento que muero...me estoy ahogando sin tu amor...
riff princ.:
e|------------------------------
b|-7-8-10-8-7-7-----------------
g|-----------9-9-7--5h7---------
d|----------------10----9h10-9--

como quisiera poder vivir sin aire...
como quisiera calmar mi aflicion...
como quisiera poder vivir sin agua...
me encantaria robar tu corazon...

>INTRO<

como pudiera un pez nadar sin agua...
riff 3:
e|-------------------------------
b|-0-1-3-5/7-7-8-5-3/5-5-3-3-1-0-
g|-0-0-4-5/7-7-9-5-3/5-5-4-4-2-1-

como pudiera un ave volar sin alas...
riff 4:
e|----7---5---3---2-2-3-2-2-0-0---2-3-2-3-
b|----------------3-3-3-3-3-1-1--3-3---3--
g|-5/7-3/5-2/3------------------4---------

como pudiera la flor crecer sin tierra...>riff 3<
como quisiera poder vivir sin ti...>riff 4<
pero no puedo... siento que muero... me estoy ahogando sin tu amor...
>riff princ.<
G          C          G          D
como quisiera poder vivir sin aire...
G             C            D
como quisiera calmar mi aflicion...
G          C          G          D
como quisiera poder vivir sin agua...
G             C            D
me encantaria robar tu corazon...

G          C          G          D
como quisiera lanzarte al olvido...
G             C            D
como quisiera guardarte en un cajon...
G          C          G         D
como quisiera borrarte de un soplido...
G             C            D
me encantaria matar esta cancion...


e|-3-2-0-----2-3-0-0---0------10---9---8--7--------
b|-3-3-1-3-3-3-3-1-1-3-1-----0--12--11--10-8-------
g|-------4-4---------2-0----0---------------7------
d|---------------------2---0------------------10-9-
a|---------------------3--2------------------------
E|-----------------------3-------------------------


cualquier duda mi msn es fransgm@hotmail.com.....

Fuente original ATAME [www.atame.org]
Colaborador original: fRaNs [fransgm@hotmail.com]

Fuente: tusacordes.com