a b c d e f g h i j k l m n o p q r s t u v w x y z 0-9

Te Llore Un Rio

Mana

			
INTRO:

e---4--7---4----4---------4------
B--5-5--5---5--5-5----7-7--7-----
G-4---4--4----4---4--4---4-------
D--------------------------------
A--------------------------------
E--------------------------------

    E  C#m     A        B 
e---4--7---4----4---------4------
B--5-5--5---5--5-5----7-7--7-----
G-4---4--4----4---4--4---4------- ENTRA LA SEGUNDA GUITARRA
D--------------------------------
A--------------------------------
E--------------------------------


    E  C#m     A        B    E
e---4--7---4----4----/7-4--------
B--5-5--5---5--5-5---/7-5-5/7----
G-4---4--4----4---4-------4------ 
D--------------------------------
A--------------------------------
E--------------------------------

E                    B
Yo  aqui llorandote un río
                C#m
mandandome al olvido

                  B
Que cosa mas injusta amor!

 E                    B
Fuiste matando mis pasiones

e-------------------------------
B---10-10/9-9-7-----------------
G---11-11/9-9-8-----------------

           C#m
tachando mis canciones
               A 
me tenias pisoteado
e-------
B--5--7-
G--6--8-
                B
Estaba deshauciado
                C#m
no es justo ¡no bebe!

   B
oh oh eh oh
           B                B-A#-A
e--4--5--5/7--5--4----------------------
B-------------------7-5-4---------------
G---------------------------4-3-2-------
D---------------------------4-3-2-------

  A                      B
Pero este mundo ya giró

e--11/12--11----
B--12/14--12----

                C#m            B
Y ahora te toco perder oh oh eh oh

e------------
B------------
G-----4-6----
D--4-6-------

 E      C#m                A 
¡bebe! te llore todo un rio bebe,bebe
e---4--7---4----4---------4------
B--5-5--5---5--5-5----7-7--7-----
G-4---4--4----4---4--4---4-------
D--------------------------------
A--------------------------------
E--------------------------------
B
bebe, te llore a reventar bebe,bebe
e---4--7---4----4---------4------
B--5-5--5---5--5-5----7-7--7-----
G-4---4--4----4---4--4---4-------
D--------------------------------
A--------------------------------
E--------------------------------
E               C#m           A 
oh no no nooooo, no tienes corazon bebe
B
no te vuelvo a amar
e---4--7---4----4---------4------
B--5-5--5---5--5-5----7-7--7-----
G-4---4--4----4---4--4---4-------
D--------------------------------
A--------------------------------
E--------------------------------
E                 C#m  A                  B
te llore todo un rio  ahora llorame un mar.
e---4--7---4----4---------4------
B--5-5--5---5--5-5----7-7--7-----
G-4---4--4----4---4--4---4-------
D--------------------------------
A--------------------------------
E--------------------------------
            B
e--------------------------------
B-------------7-8-9--------------
G-------6-8-9--------------------
D--6-7-9-------------------------

 E                       B
Ya no me busques ya es muy tarde

e-9---11-----
B-10--12-----
G------------

             C#m
Ya tengo otro amor

          B
una chula sirena

e--9---11--12--11--9---7-----
B--10--12--14--12--10--9-----
G----------------------------
                 E
Que nada en mi piel
E                        B
Yo te perdono no hay rencores
e-11--9-/11---º
B-12--10/12---º
G-------------º
              C#m
tan solo los dolores
e--------------------------------
B--------------------------------
G------4-6-----------------------
D--4-6---------------------------
                A 
mi alma esta arañada
              B
llore en suelo mojado

                 C#m
¡no es justo! no bebe

e-9-/11-11-11/12-12---
B-10/12-12-12/14-14---
G---------------------

oh oh eh oh
      B          B-A#-A
º-------------7-6-5----
º-------------7-6-5----
º----------------------

A                     B
Pero este mundo ya giro

e-/12--11---------
B-/14--12---------
G-----------------

                 C#m           B
Y ahora te toco perder oh oh eh oh


e-/9-9-9--7-7--4-5-4----
B--9-9-9---7-7-5-5-5----


 E      C#m                A 
¡bebe! te llore todo un rio bebe,bebe
e---4--7---4----4---------4------
B--5-5--5---5--5-5----7-7--7-----
G-4---4--4----4---4--4---4-------
D--------------------------------
A--------------------------------
E--------------------------------
B
bebe, te llore a reventar bebe,bebe
e---4--7---4----4---------4------
B--5-5--5---5--5-5----7-7--7-----
G-4---4--4----4---4--4---4-------
D--------------------------------
A--------------------------------
E--------------------------------
E               C#m           A 
oh no no nooooo, no tienes corazon bebe
B
no te vuelvo a amar
e---4--7---4----4---------4------
B--5-5--5---5--5-5----7-7--7-----
G-4---4--4----4---4--4---4-------
D--------------------------------
A--------------------------------
E--------------------------------
E                 C#m  A                  B
te llore todo un rio  ahora llorame un mar.
e---4--7---4----4---------4------
B--5-5--5---5--5-5----7-7--7-----
G-4---4--4----4---4--4---4-------
D--------------------------------
A--------------------------------
E--------------------------------
            B
e---------------------
B---------------------
G---------------------
D------6-7-9----------
A-6-7-9---------------


e-/12--12-12--11--11-11--9---9---7-7----7--7--7---12-11---
B-/14--14-14--12--12-12--10--10--9-9----9--9--9---14-12---
G---------------------------------------------------------

e------------------------------------
B----------------12-10-9-------------
G------------8-9---------9-9/11------
D--------9-11------------------------
A-9-11-12----------------------------

e-----------------------
B--9-9-9-9-9--10-10-10--LA SEPARE POR QUE 
G----------------------- ESTA PARTE ES UN
D----------------------- PUNTEO RAPIDO
A-----------------------
lo mismos del coro 

  E                  C#m
Verdad que un rio te llore ,

 A                      B
verdad que no te vuelvo a amar

               E     C#m           A         B
oh no no no no no, no te vuelvo a amar uuuuuuuuuuuuu

 E                     C#m
Verdad que un rio te llore ,

  A                     B
verdad que no te vuelvo a amar

     E             C#m           A           B
oh no no no no no,pierdete en tu mar uuuuuuuuuuuuuu

    E             C#m
Verdad que un rio te llore ,

   A               B
verdad que no te vuelvo a amar

 E         C#m      A      B         E.
llorame,llorame,llorame uuuuuu

Fuente: Tusacordes