a b c d e f g h i j k l m n o p q r s t u v w x y z 0-9

Te Llore Un Rio

Mana

			
Aquí esta el punteo completo de esta canción en vivo de Maná
Espero que les guste!!!!




Intro:

E-------------------------------------------|
A-------------------------------------------|
D-------------------------------------------|
G--4-----4--------4--------4--------4-------|
B-----5--------5--------5--------5-----5----|
E-----------4--------7--------4-------------|




E----------------------------------------------|
A----------------------------------------------|
D----------------------------------------------|
G--6-----6--------6-----4-----4--------4-------|
B-----5--------5-----7-----7--------7-----5----|
E-----------4--------------------4-------------|  todo esto se repite x2




y el último es así


E-------------------------------------------|
A-------------------------------------------|
D-------------------------------------------|
G--4-----4--------4--------4--------4-------|
B-----5--------5--------5--------5-----5----|
E-----------4--------7--------4-------------|




E----------------------------------------|
A----------------------------------------|
D----------------------------------------|
G--6-----6--------6----------------------|
B-----5--------5--------7-----5/7--5-----|
E-----------4--------4-----4-------------|







Yo aquí llorandote un río
lanzándome al olvido
qué cosa más injusta amor... RIFF 1


Fuiste matando mis pasiones RIFF 2
tachando mis canciones RIFF 3
me tenías pisoteado RIFF 4
estaba deshauciado


No es justo no bebe... oh, oh, eh oh... RIFF 5
Pero es mundo ya giró RIFF 6
y ahora te tocó perder
oh, oh, eh oh... 


INTRO
Bebe, te lloré todo un río bebe, bebe
Bebe, te lloré a reventar bebe, bebe
O no, no, no... no tienes corazón
No te vuelvo a amar
Te lloré todo un río
Ahora llórame un mar RIFF 7


Ya no me busques, ya es muy tarde RIFF 8
ya tengo otro amor
una chula sirena RIFF 9
que nada en mi piel


Yo te perdono, no hay rencores RIFF 10
solo los dolores RIFF 11
Mi alma está arañada
Lloré en suelo mojado


No es justo no bebe... RIFF 12 oh, oh, eh oh...
Pero es mundo ya giró RIFF 13
y ahora te tocó perder RIFF 14
oh, oh, eh oh... 


INTRO
Bebe, te lloré todo un río bebe, bebe
Bebe, te lloré a reventar bebe, bebe
oh, no, no, no... no tienes corazón
No te vuelvo a amar
Te lloré todo un río
Ahora llorame un mar RIFF 15


E-----------------------------------------------------------------|
A-----------------------------------------------------------------|
D-----------------------------------------------------------------|
G-----------------------------------------------------------------|
B------------------------------------12--12--12--12--12-----------|
E--11/12--12--1211--11--119--9--9----------------------12--11---|




E-------------------------------------------------------------|
A--11--12-----------------------------------------------------|
D----------9--11--13------------------------------------------|
G---------------------11--9-------------9--11/13--------------|
B----------------------------12--10--9------------9--9--9-----|
E-------------------------------------------------------------|



E--------------|------------------------------------|
A--------------|------------------------------------|
D--------------|------------------------------------|
G--------------|-------------------------11------|
B--9--10--10---|--10--10-------------12-------------|
E--------------|----------9--12--11-----------------|



INTRO
Verdad que un río... 


Verdad que un río te lloré
verdad que no te vuelvo a amar
O no, no, no... no te vuelvo a amar


Verdad que un río te lloré
verdad que no te vuelvo a amar
O no, no, no... pierdete en tu mar


Verdad que un río te lloré
verdad que no te vuelvo a amar
llorame, llorame, llorame...



E-------------------------------------------------|
A-------------------------------------------------|
D-------------------------------------------------|
G--------------------------------------6--4--6----|
B-----------------------7--5--4--5--4-------------|
E--4--4--4--5--4--5--4----------------------------|




E-----------|-------------------------------|
A-----------|-------------------------------|
D--------7--|--7--7-------------------------|
G--6--4-----|--------6--------------6--4----|
B-----------|-----------5--4--5--4----------|
E-----------|-------------------------------|




E------------------------------------------------------------------|
A------------------------------------------------------------------|
D------------------------------------------------------------------|
G--4--6--------6---------------------------------------------------|
B--------4--5-----4--5--7--4--5--7-----------------7--5--4--5--5---|
E-----------------------------------4--4--4--4--4------------------|




E-------------------------------------------------|
A-------------------------------------------------|
D-----------------------------------------9--9----|
G--------8-----6--8--4--6--6--8--------8----------|
B--5--7----5---------------------5--7-------------|
E-------------------------------------------------|




E---------------------------------------------------|
A---------------------------------------------------|
D--9--9---------------------------------------------|
G--------6--8---------------------------------------|
B--------------5--7--8--9--9--9--------9-----9------|
E--------------------------------7--9-----9-----9---|




E-----------------------|----------------------------|
A-----------------------|----------------------------|
D-----------------------|----------------------------|
G-----------------------|----------------------------|
B--9--------10----------|----------------------------|
E-----9--7------7/9--7--|--7/9--9/11--9--9--7--7/5---|




E---------------------------------------------------|
A---------------------------------------------------|
D---------------------------------------------------|
G-----------------------------------------4---------|
B--------------------------------------2------------|
E--7/9--9--97--7--7--74--4--4--4--2--------3--4---|






Estos son todos los punteos que se hacen en la canción:


RIFF 1                                    RIFF 2
E----------------------------------------|------------------------------|
A----------------------------------------|------------------------------|
D----------------------------------------|------------------------------|
G----------------------------------------|------------------------------|
B--12--12------------------------12------|------------------------------|
E----------12--11--9--11--9--11----------|--5--5--5--5--4--2--4--2------|




RIFF 3          RIFF 4                 RIFF 5
E--------------|----------------------|-----------------------------------|
A--------------|----------------------|-----------------------------------|
D--------------|----------------------|-----------------------------------|
G--1-----------|----------------------|--------------------------4--3--2--|
B-----0--2-----|----------------------|-----------------7--5--4-----------|
E-----------0--|--0--0--0--2--0--2p0--|--4--5--7--5--4--------------------|




RIFF 6        RIFF 7                            RIFF 8
E------------|---------------------------------|-----------|
A------------|---------------------------------|-----------|
D------------|--6--7--9------------------------|-----------|
G------------|-----------6--8--9---------9-----|-----------|
B------------|--------------------7h9p7--------|-----------|
E--7/9--7----|---------------------------------|--9--11----|




RIFF 9                    RIFF 10       RIFF 11
E------------------------|-------------|----------------|
A------------------------|-------------|----------------|
D------------------------|-------------|--6--7--9-------|
G------------------------|-------------|-----------6----|
B--------------------12--|-------------|----------------|
E--9--11--12--11--9------|--11--9/11---|----------------|




RIFF 12                     RIFF 13
E--------------------------|--------------|
A--------------------------|--------------|
D--------------------------|--------------|
G--------------------------|--------------|
B--------------------------|--------------|
E--9--11--11--12--12--12---|--11/12--11---|




RIFF 14                                 RIFF 15
E--------------------------------------|-------------------------|
A--------------------------------------|-------------------------|
D--------------------------------------|--1--2--4----------------|
G--------------------------------------|-----------1--2----------|
B-------------------------9--9--9----|-----------------0--2----|
E--7/9--9--9--7--7--7--7---------------|-------------------------|




y los acordes que se usan son:
   B:   799877 ó 224442
   Bb:  688766 ó 113331
   A:   577655 ó X02220
   E:   779997 ó 022100
   C#m: 446654

Fuente original ATAME [www.atame.org]
Colaborador original: Andrés Marenco Zúñiga [andres@atame.org]

Fuente: tusacordes.com