a b c d e f g h i j k l m n o p q r s t u v w x y z 0-9

Sor Maria

Mana

			
INTRO:
e-----------------------------------------------
B-6--6--5--5--3--3-3-3--3--3--5--5--6--6--6--6-- guitarra 1 
G-7--7--5--5--3--3-3-3--3--3--6--6--7--7--3-3-3-
D-7-7-7-5-5-5-3-3-3-3-3-5-5-5-5-5-5-7-7-7-------
A-5-----3-----1---------5-----7-----5-----------
E-----------------------------------------------

e-10----10----8---------6-----5-----5-- 
B--------------------------------------
G-------------------------------------- guitarra 2 
D-12----10----8---------8-----5-----7--
A--------------------------------------
E--------------------------------------

Detrás de un muro en un convento hay un sueño en la piel
e-------------------------------------------------
B-6--6--5--5--3--3---3-3----3-----5--6--6--6--6-- guitarra 1 
G-7--7--5--5--3--3------3---3-----6--7--7--3-3-3- t:(tap tapa
D-7-7-7-5-5-5-3-3-2t3-3----5-5---5-5-7-7-7------- solamente el 
A-5-----3-----1-----------5-----7----5----------- traste sin  
E------------------------------------------------- necesidad de tocarlo)

e-10----10----8---------6-----5-----5-- 
B--------------------------------------
G-------------------------------------- guitarra 2 
D-12----10----8---------8-----5-----7--
A--------------------------------------
E--------------------------------------
Sor María se disfraza como el viento sueña y vuela, va con él.
e-------------------------------------------------
B-6--6--5--5--3--3---3-3----3-----5--6--6--6--6-- guitarra 1 
G-7--7--5--5--3--3------3---3-----6--7--7--3-3-3- t:(tap tapa
D-7-7-7-5-5-5-3-3-2t3-3----5-5---5-5-7-7-7------- solamente el 
A-5-----3-----1-----------5-----7----5----------- traste sin  
E------------------------------------------------- necesidad de tocarlo)

e-10----10----8-----------6-----5----5- 
B--------------------------------------
G-------------------------------------- guitarra 2 
D-12----10----8-----------8-----5----7-
A--------------------------------------
E--------------------------------------
Sor María encerrada,le prohibieron libertad,
e-------------------------------------------------
B-6--6--5--5--3--3---3-3----3-----5--6--6--6--6-- guitarra 1 
G-7--7--5--5--3--3------3---3-----6--7--7--3-3-3- t:(tap tapa
D-7-7-7-5-5-5-3-3-2t3-3----5-5---5-5-7-7-7------- solamente el 
A-5-----3-----1-----------5-----7----5----------- traste sin  
E------------------------------------------------- necesidad de tocarlo)

e-10----10----8---------6-----5-----5-- 
B--------------------------------------
G-------------------------------------- guitarra 2 
D-12----10----8---------8-----5-----7--
A--------------------------------------
E--------------------------------------
las hermanas le advirtieron con espanto es pecado enamorarse,
es virtud la castidad.
e---------------------------------------------
B-6--6--5--5--3--3---3-3----3-----5--6--6----- guitarra 1 
G-7--7--5--5--3--3------3---3-----6--7--7----- t:(tap tapa
D-7-7-7-5-5-5-3-3-2t3-3----5-5---5-5-7-7-7---- solamente el 
A-5-----3-----1-----------5-----7----5-------- traste sin  
E--------------------------------------------- necesidad de tocarlo)

e-10----10----8---------6-----5-----5-- 
B--------------------------------------
G-------------------------------------- guitarra 2 
D-12----10----8---------8-----5-----7--
A--------------------------------------
E--------------------------------------
Se lo dijo el padre Aurelio Sor María pliega el vuelo,
hija mía ponte en paz.
e-----------------------------------------------
B-6--6--5--5--3--3---3-3----1-1-1---1----------- guitarra 1 
G-7--7--5--5--3--3------3---2-2-2---0-0-----0--- t:(tap tapa
D-7-7-7-5-5-5-3-3-2t3-3----3-3-3-3-2-2-2-0t2-2-- solamente el 
A-5-----3-----1-----------3-------3-----3------- traste sin  
E----------------------------------------------- necesidad de tocarlo)

e-5-----3-----6--6--------5-------8--
B---------------6--------------------
G------------------------------------ guitarra 2 
D-7-----5-----3-----------7-------10-
A------------------------------------
E------------------------------------
Ella dijo: ya no puedo padre Aurelio si la luz entra en el agua,
se le olvida el cielo
e----------------------------------------------
B-6--6--5--5--3--3---3-3----1-1-1-----3--2----- guitarra 1 
G-7--7--5--5--3--3------3---2-2-2------0--0---- t:(tap tapa
D-7-7-7-5-5-5-3-3-2t3-3----3-3-3-3-0t2--2--2--- solamente el 
A-5-----3-----1-----------3-------0------------ traste sin  
E---------------------------------------------- necesidad de tocarlo)

e-5-----3-----6--6----------5-----3--
B---------------6---------6----------
G------------------------------------ guitarra 2 
D-7-----5-----3-----------7-------2--
A------------------------------------
E------------------------------------
coro:
A#     C      F         Dm 
Una mujer enamorada, decidida,
e----------------10------
B-5/8-10-8-5------------- (la guitarra 2 va con
G-6/9-10-9-6-6/10-------- los acordes)
D------------------------ guitarra 1 
A------------------------
E------------------------
A#     C      F         Dm 
pasma el aire,el universo y la razón.
e-----------------------
B-5/8-10-8-5-5---------- (la guitarra 2 va con
G-6/9-10-9-6-6---------- los acordes)
D------------7---------- guitarra 1 
A-----------------------
E-----------------------
A#     C              F               A7    
Si la luz entra en el agua, olvida el cielo
A#     C      Dm       
va con el sueño en la piel.
e------------------------
B-5/8-10-4-5-8----------- (la guitarra 2 va con
G-6/9-10-5-6-9----------- los acordes)
D------------------------ guitarra 1 
A------------------------
E------------------------
INTRO:PUNTEO
e-----------------------------------------------
B-6--6--5--5--3--3-3-3--3--3--5--5--6--6--6--6-- guitarra 1 
G-7--7--5--5--3--3-3-3--3--3--6--6--7--7--3-3-3-
D-7-7-7-5-5-5-3-3-3-3-3-5-5-5-5-5-5-7-7-7-------
A-5-----3-----1---------5-----7-----5-----------
E-----------------------------------------------

e-10----10----8---------6-----5-----5-----12---12-10-
B----------------------------------------------------
G--------------------------------------/12---12------ guitarra 2 
D-12----10----8---------8-----5-----7----------------
A----------------------------------------------------
E----------------------------------------------------
Ablando sola con su sombra inventando estar con él,
e-------------------------------------------------
B-6--6--5--5--3--3---3-3----3-----5--6--6--6--6-- guitarra 1 
G-7--7--5--5--3--3------3---3-----6--7--7--3-3-3- t:(tap tapa
D-7-7-7-5-5-5-3-3-2t3-3----5-5---5-5-7-7-7------- solamente el 
A-5-----3-----1-----------5-----7----5----------- traste sin  
E------------------------------------------------- necesidad de tocarlo)

e----12------13-12---- 
B---------------------
G-/12--12-/14---12---- guitarra 2 
D---------------------
A---------------------
E---------------------
suelta un beso en el aire y lo nombra
labios llenos de su miel.
e-------------------------------------------------
B-6--6--5--5--3--3---3-3----3-----5--6--6--6--6-- guitarra 1 
G-7--7--5--5--3--3------3---3-----6--7--7--3-3-3- t:(tap tapa
D-7-7-7-5-5-5-3-3-2t3-3----5-5---5-5-7-7-7------- solamente el 
A-5-----3-----1-----------5-----7----5----------- traste sin  
E------------------------------------------------- necesidad de tocarlo)
Sor María enamorada sin remedio trae ardiendo el corazón.
e-----------------------------------------------
B-6--6--5--5--3--3---3-3----1-1-1---1----------- guitarra 1 
G-7--7--5--5--3--3------3---2-2-2---0-0-----0--- t:(tap tapa
D-7-7-7-5-5-5-3-3-2t3-3----3-3-3-3-2-2-2-0t2-2-- solamente el 
A-5-----3-----1-----------3-------3-----3------- traste sin  
E----------------------------------------------- necesidad de tocarlo)

e------------------------5--10----10--------
B-----------------------------13----13------
G-------------------------------12----12-10- guitarra 2 
D-------------------------------------------
A-------------------------------------------
E-------------------------------------------
Está inundada de sus sueños, de sus ganas,ignorarlo es contranatural
por piedad no me juzguen, ¡Redentor!
e----------------------------------------------
B-6--6--5--5--3--3---3-3----1-1-1-----3--2----- guitarra 1 
G-7--7--5--5--3--3------3---2-2-2------0--0---- t:(tap tapa
D-7-7-7-5-5-5-3-3-2t3-3----3-3-3-3-0t2--2--2--- solamente el 
A-5-----3-----1-----------3-------0------------ traste sin  
E---------------------------------------------- necesidad de tocarlo)

e-5-----3-----6--6----------5-----3--
B---------------6---------6----------
G------------------------------------ guitarra 2 
D-7-----5-----3-----------7-------2--
A------------------------------------
E------------------------------------
coro:
A#     C      F         Dm 
Una mujer enamorada, decidida,
e----------------10------
B-5/8-10-8-5------------- (la guitarra 2 va con
G-6/9-10-9-6-6/10-------- los acordes)
D------------------------ guitarra 1 
A------------------------
E------------------------
A#     C      F         Dm 
pasma el aire,el universo y la razón.
e-----------------------
B-5/8-10-8-5-5---------- (la guitarra 2 va con
G-6/9-10-9-6-6---------- los acordes)
D------------7---------- guitarra 1 
A-----------------------
E-----------------------
A#     C              F               A7    
Si la luz entra en el agua, olvida el cielo
A#     C      Dm       
va con el sueño en la piel.
e------------------------
B-5/8-10-4-5-8----------- (la guitarra 2 va con
G-6/9-10-5-6-9----------- los acordes)
D------------------------ guitarra 1 
A------------------------
E------------------------

e---------------------------------------------------------
B-3-3-3-3-3-3-3-3-3-3-3-3-3-3-3-3-1-1-1-1-1-1-1-1-1-1-1-1-
G-2-2-2-2-2-2-2-2-3-3-3-3-3-3-3-3-0-0-0-0-0-0-0-0-2-2-2-2-
D-0-0-0-0-0-0-0-0-0-0-0-0-0-0-0-0-2-2-2-2-2-2-2-2-3-3-3-3-
A---------------------------------------------------------
E---------------------------------------------------------

e---------------------------------------------------------
B-1-1-1-1-3-3-3-3-3-3-3-3-3-3-3-3-3-3-3-3-3-3-3-3-3-3-3-3-
G-2-2-2-2-2-2-2-2-2-2-2-2-3-3-3-3-3-3-3-3-3-3-3-3-3-3-3-3-
D-3-3-3-3-0-0-0-0-0-0-0-0-0-0-0-0-0-0-0-0-5-5-5-5-5-5-5-5-
A---------------------------------------------------------
E---------------------------------------------------------

e--------------------------------------
B-5-5-5-5-5-5-5-5----------------------
G-6-6-6-6-6-6-6-6----------3-3-3-------
D-5-5-5-5-5-5-5-5-----------5----------
A--------------------------------------
E--------------------------------------
 A#                Dm                   C
Ven huir al padre Aurelio,Sor María fatal,
                         F
los sorprendieron en pecado capital
A#                   Gm
los fusilaron a los dos,
                         A7
mano con mano hasta el final
                   A7
como los arboles que mueren de pie.
       A#           C          F          
y se soñaba con la luz de la mañana
Dm
y la bañera
e----------------10------
B-5/8-10-8-5------------- (la guitarra 2 va con
G-6/9-10-9-6-6/10-------- los acordes)
D------------------------ guitarra 1 
A------------------------
E------------------------
A#     C      F         Dm 
que le besa el vientre y los labios y los pies
e-----------------------
B-5/8-10-8-5-5---------- (la guitarra 2 va con
G-6/9-10-9-6-6---------- los acordes)
D------------7---------- guitarra 1 
A-----------------------
E-----------------------
A#       C               F           A7
se sonroja y se len encienden las mejillas.
          A#       C          Dm
Se murió con un sueño en la piel
e------------------------
B-5/8-10-4-5-8----------- (la guitarra 2 va con
G-6/9-10-5-6-9----------- los acordes)
D------------------------ guitarra 1 
A------------------------
E------------------------
con un sueño en la piel,
e-------------------------------------------------
B-6--6--5--5--3--3---3-3----3-----5--6--6--6--6-- guitarra 1 
G-7--7--5--5--3--3------3---3-----6--7--7--3-3-3- t:(tap tapa
D-7-7-7-5-5-5-3-3-2t3-3----5-5---5-5-7-7-7------- solamente el 
A-5-----3-----1-----------5-----7----5----------- traste sin  
E------------------------------------------------- necesidad de tocarlo)

e-10----8-----6---------6-------5----5-- 
B--------------------------------------
G-------------------------------------- guitarra 2 
D-12----10----8---------8-------5----7--
A--------------------------------------
E--------------------------------------
con un sueño en la piel.
e-------------------------------------------------
B-6--6--5--5--3--3---3-3----3-----5--6--6--6--6-- guitarra 1 
G-7--7--5--5--3--3------3---3-----6--7--7--3-3-3- t:(tap tapa
D-7-7-7-5-5-5-3-3-2t3-3----5-5---5-5-7-7-7------- solamente el 
A-5-----3-----1-----------5-----7----5----------- traste sin  
E------------------------------------------------- necesidad de tocarlo)

e-10----8-----6--------------------- 
B-----------------------------------
G----------------------------------- guitarra 2 
D-12----10----8---------------------
A-----------------------------------
E-----------------------------------

e--1-1-----------------1-1------------1-1----
B--1-3-----------------1-3------------1-3----
G--2-3-----------------2-3------------2-3----
D--3-3-----------------3-3------------3-3----
A--3-1-----------------3-1------------3-1----
E--1-1-----------------1-1------------1-1----

Fuente: Tusacordes