a b c d e f g h i j k l m n o p q r s t u v w x y z 0-9

Se Me Olvido Otra Vez

Mana

			
Esta transcripción ya habia sido colocada por otro colaborador, la diferencia es que
la anterior tenia algunos errores y además, agrego la diferencia en la tabletura 
intercalando la 1era y 2da guitarra,
para lograr la armonia.


Estrofa:
E||----------------|---------------------|-------------|
B||-2-2-0-2-0-2----|-------3-2-2-0-------|-3-3-2-3-2-3-|
G||----------------|-2-2-2---------------|-------------|
D||----------------|---------------------|-------------|
A||----------------|---------------------|-------------|
E||----------------|---------------------|-------------|
Probablemente ya    de mi te has olvidado y sin embargo yo

E||-------0---------|-2-2-0-2-0-2----|-------4-2-2-0-------
B||-0-0-0---3-3-2---|----------------|-2-2-2---------------
G||-----------------|----------------|---------------------
D||-----------------|----------------|---------------------
A||-----------------|----------------|---------------------
E||-----------------|----------------|---------------------
te seguire esperando no me querido ir por ver si algun dia.

E||----0-0---0-------|---0-2-0-2-0---------|---------------
B||--------4---4-3---|-------------3-2-----|-2-2-0-2-0-2---
G||------------------|---------------------|---------------
D||------------------|---------------------|---------------
A||------------------|---------------------|---------------
E||------------------|---------------------|---------------
que tu quieras volver me encuentres todavia. POr eso aun estoy 

E||-----------------|------------------|-------0-----------
B||-------3-2-2-0---|---3-3-2-3-2-3----|-0-0-0---3-3-2-----
G||-2-2-2-----------|------------------|-------------------
D||-----------------|------------------|-------------------
A||-----------------|------------------|-------------------
E||-----------------|------------------|-------------------
en el lugar de siempre en la misma ciudad y con la misma gente

E||---2-2-0-2-0-2------|-------4-2-2-0-----|-0-0----0------
B||--------------------|-2-2-2-------------|-------4?4-3---
G||--------------------|-------------------|---------------
D||--------------------|-------------------|---------------
A||--------------------|-------------------|---------------
E||--------------------|-------------------|---------------
Para que tu al volver no encuentres nada estraño y sea como ayer

E||-0-2-0-2-0-------|----------------------------|
B||-----------3-2---|----------------------------|
G||-----------------|----------------------------|
D||-----------------|----------------------------|
A||-----------------|----------------------------|
E||-----------------|----------------------------|
y nunca mas dejarnos

                                
                               1era guitarra 2,4,2,4,2,2,0
Estribillo:             4   4  2da guitarra. 3,0,3,0,3,3,2
E|| ----------------|-2-0-2-0-2-2-0-----|-------0---0--|el último 0 es de la primera guitarra
B||:--------0-2-3---|-3---3---3-3-2-----|-2-2-2---2-3--|
G|| -2-2-2----------|-------------------|--------------|
D|| ----------------|-------------------|--------------|
A||:----------------|-------------------|--------------|
E|| ----------------|-------------------|--------------|
Probablemente estoy viviendo demasiado se me olvidaba que

1
E||--------0-------- |
B||--0-0-0---3-3-2--:|
G||----------------- |
D||----------------- |
A||-----------------:|
E||----------------- |
ya habiamos terminado que nunca volveras que nunca me quisistes



E||--------2---0-----|--------------------|
B||--2-2-2---2-------|--2-3-2-3-2-0-------|
G||------------------|--------------2-----|
D||------------------|--------------------|
A||------------------|--------------------|
E||------------------|--------------------|
se me olvido otra vez  que solo yo te quise

Fuente original ATAME [www.atame.org]
Colaborador original: Christian [Christianish@hotmail.com]

Fuente: tusacordes.com