a b c d e f g h i j k l m n o p q r s t u v w x y z 0-9

Sabanas Frias

Mana

			
He aqui la transcripcion semi-correcta de una de las mejores canciones del
grupo musical Maná, Por lo menos sirve pa tocarla o ke???

Espero ke corrigan algunos errores y me hagan saber de ellos a mi e-mail

La cancion comienza y se mantiene en las estrofascon un ritmo repetitivo que 
es el siguiente:

Guitarra 1: Intro y Estrofas (Jueguen vivo con los tiempos, de los
contrario no les saldra bn este ritmo(se lo escribiria estilo pentagramasolfeo
pero da pereza)


Riff Base, Riff 1

e ------3-------7---5------------0-------------2--------
B ----5---5------------5-------1---1---------4---4------
G -4--------4----------------2-------2-----4-------4----
D ------------------------------------------------------
A ------------------------------------------------------
E ------------------------------------------------------


En esta primera estrofa se toca el arpejio


Como me duele este frío, aquí en mi cama
Como yo extraño tus besos en madrugada
Quisiera dormir amor sobre tus pechos
Quisiera vivir amor atado a tus huesos



Despues viene la segunda guitarra pa tocar estos acordes:


Riff 2

    Am(5º traste)  Em(7º Traste)   Bm(7º traste)
e --5-------------7----------------7--
B --5---------------8--------------7--
G --5---------------9--------------7--
D ----7-------------9----------------9
A ----7-----------7------------------9
E --5-------------7----------------7--


Y se tocaría de la siguiente forma: Am, Em, Am, Bm, Pero no estoy muy
seguro de ello (la guitarra esta en rythm guitarra electrica)
pero en guitarra acustica o clasica se toca mas o menos alli bien con las notas dadas.


de alli denuevo el arpejio 


Estas sábanas mi amor están muy frías,
ven a darme tu calor y arráncame el dolor,          ...epale !
Yo te quiero compartir toda mi vida,
te comparto mi cuarto, mi cama y todo mi amor.



RIFF 3
    Em      D  C  B

e -7-7-7----5--3--2----
B -8-8-8----7--5--4----
G -9-9-9----7--5--4----
D -9-9-9----7--5--4----
A -7-7-7----5--3--2----
E -7-7-7----5--3--2----


En esta hay ke poner oido al Do (C), pues se oye como un segundo rasgueo de Re (D)

La Estrofa sigue con los mismos acordes

Em                 D        C            B                
Vente a vivir conmigo amor, que mi sábana está fría.
Em                 D        C            B      
Vente a vivir conmigo amor, porque mi cama está vacía.
Em                 D        C            B      
Vente a vivir conmigo amor, hiriendo a mis sentimientos.
Em                 D        C            B      
Sábanas frías sin su amor.

De alli sigue el siguiente arpejio sencillo, no estoy muy seguro es mi primer tab

RIFF 4:

E  --7------7-5------7-3---------3-----5-------5--| 
B  --8----8---7----7---5-----5-----5---7-----7----| 
G  --9--9-----7--7-----5---5---5----5--7---7------| 
D  --9--------7--------5---------------7----------| 
A  --7--------5--------3---------------5----------| 
E  -----------------------------------------------|

Aquí se toca el RIFF 1 otra vez:

Y te cuidaré por siempre, y donde quiera
te amaré como uno quiere a su bandera

Y aquí entra el RIFF 2, y se sigue tocando el RIFF 1:

Yo te quiero compartir todo, todo mi amor.
Te comparto mi cuarto mi cama, mis besos y todo, todo amor.

Aquí entra un piano, es igual al coro anterior, pero 
ahora con los siguientes acordes:

F#m	       E  D    C#   (2 veces)

CORO: (al final termina repitiendo las mismas notas F#m	       E  D    C#)

F#m	       E  D    C#
Vente a vivir conmigo amor, ay vamoal caribe mexicano
F#m	       E  D    C#
Vente a vivir conmigo amor, no le cuente a su mamá sólo a su hermana
F#m	       E  D    C#
Vente a vivir conmigo amor, yo te hago el café por la mañana.
F#m	       E  D    C#
Sábanas frías sin su amor.

F#m	       E  D    C#
Vente a vivir conmigo amor, vente a vivir conmigo amor.
Vente a vivir conmigo amor, ay ven ven ya para acá, ay mamá.
Vente a vivir conmigo amor, vente a vivir con Maná.
Sábanas frías sin su amor.


Sábanas frías sin su amor, qué dolor, qué dolor.
Sábanas frías sin su amor, qué dolor, qué dolor.

Y asi termina la cancion con un Fade Out, al estilo Santana


Como ven este es mas bien como una corrección del Tab Anterior.


Viva el CP San Judas Tadeo en Panamá, made By Carlos Jesus... Disfrutenla!!!

AGDSTFMB

Fuente original ATAME [www.atame.org]
Colaborador original: Carlos Jesus [dj_sponger@hotmail.com]

Fuente: tusacordes.com