a b c d e f g h i j k l m n o p q r s t u v w x y z 0-9

Relax

Mana

			
****NAPM****

Intro:

e|------------------------------------------|x4
B|------------------------------------------|
G|--7-9---10-----9-7-----7-9-7----7-9-7-----|
D|------7-------------10-------10-------10--|
A|------------------------------------------|
E|------------------------------------------|


e|----------------------------------------------------|x2
B|----------------------------------------------------|
G|-------------------------------------9-9--11-11-11--|
D|--9--11---10-10--12-12-12----9--11---7-7--9--9--9---|
A|--7--9----8--8---10-10-10----7--9-------------------|
E|----------------------------------------------------|

e|------------------------------------------|x2
B|------------------------------------------|
G|--7-9---10-----9-7-----7-9-7----7-9-7-----|
D|------7-------------10-------10-------10--|
A|------------------------------------------|
E|------------------------------------------|

e|----------------------------------------------------|x2
B|----------------------------------------------------|
G|-------------------------------------9-9--11-11-11--|
D|--9--11---10-10--12-12-12----9--11---7-7--9--9--9---|
A|--7--9----8--8---10-10-10----7--9-------------------|
E|----------------------------------------------------|

e|---------------------|x2
B|---------------------|
G|---------------------|
D|---------------------|
A|--9x5--7x5--5x10-----|
E|--7----5----3--------|


e|------------------------------------------|x4
B|------------------------------------------|
G|--7-9---10-----9-7-----7-9-7----7-9-7-----|
D|------7-------------10-------10-------10--|
A|------------------------------------------|
E|------------------------------------------|


e|----------------------------------------------------|x4
B|----------------------------------------------------|
G|-------------------------------------9-9--11-11-11--|
D|--9--11---10-10--12-12-12----9--11---7-7--9--9--9---|
A|--7--9----8--8---10-10-10----7--9-------------------|
E|----------------------------------------------------|



e|---------------------|x2
B|---------------------|
G|---------------------|
D|---------------------|
A|--9x5--7x5--5x10-----|
E|--7----5----3--------|
    .    .    .

*pues aquise usa un palmuting



e|------------------------------------------|x4
B|------------------------------------------|
G|--7-9---10-----9-7-----7-9-7----7-9-7-----|
D|------7-------------10-------10-------10--|
A|------------------------------------------|
E|------------------------------------------|

Aqui la siguiente parte que viene es el solo,
Se matiene esto,,.,


e|---------------------|x2
B|---------------------|
G|---------------------|
D|---------------------|
A|--9x5--7x5--5x10-----|
E|--7----5----3--------|



e|------------------------------------------|
B|------------------------------------------|
G|--7-9---10-----9-7-----7-9-7----7-9-7-----|
D|------7-------------10-------10-------10--|
A|------------------------------------------|
e|------------------------------------------|

********NAPM*******

Fuente: tusacordes.com