a b c d e f g h i j k l m n o p q r s t u v w x y z 0-9

Relax

Mana

Am
Dm
Em
C
E
G
F
			
 INTRO
e|---------------------------------------------------------------|
B|-5-----6-5-------5-------5------5-----6-5-------5-------5------|
G|---5-------7-5-7---5---7---5------5-------7-5-7---7-5-7---7-5--|
D|-----7---------------7-------7------7--------------------------|
A|---------------------------------------------------------------|
E|---------------------------------------------------------------| [x2]

Am             Dm       Em - Am
Siento que el mundo no para, me vuelvo loco
Am             Dm       Em - Am
Siento que el sol no calienta nada, ni un poco
Am          Dm          Em - Am
Vivo en el borde y el filo de una navaja
Am         Dm           Em - Am
Pero por Dios en mi tierra nadie se raja

e|---------------------------------------------------------------|
B|-5-----6-5-------5-------5------5-----6-5-------5-------5------|
G|---5-------7-5-7---5---7---5------5-------7-5-7---7-5-7---7-5--|
D|-----7---------------7-------7------7--------------------------|
A|---------------------------------------------------------------|
E|---------------------------------------------------------------|

Am      Dm           Em - Am
Mi corazón ya no aguanta, ya está cansado
Am      Dm       Em - Am
Una mujer, problemas, me están matando
Am        Dm          Em - Am
quiero subirme al balcón de la luna llena
Am        Dm          Em - Am
quiero volar, olvidarme de tanta pena.

*PRE-CORO
C         C/E        Am
  Si me clavo no la libro, oh no no
C         C/E        E
no me voy a dar un tiro.

*CORO
     Am Dm Em Am             Am Dm Em Am
Relax,           me voy a estallar
               Am Dm Em Am
no voy a olvidar toda esta noche,
              Am Dm Em Am
no quiero pensar no.


Am      Dm           Em - Am
Hoy tengo mucho trabajo, ya no lo aguanto
Am      Dm           Em - Am
Siento que todos conmigo se estan pasando
Am      Dm           Em - Am
Quiero mudarme a una casa que este en la playa
Am      Dm           Em - Am
Quiero comprar una nave de buena talla
Am      Dm           Em - Am
Salgo en las noches pensando que estoy prendido
Am         Dm           Em - Am
Pero en verdad que la paso bien aburido
Am      Dm           Em - Am
Busco calores los brazos de una gitana
Am         Dm           Em - Am
Pero al final siempre llego solo a mi cama


*PRE-CORO
*CORO

Am - G - F - C - E [x2]

SOLO: Am - Dm - Em - Am [x4]

*PRE-CORO


Relax, relax,
e|---------------------------------------------------------------|
B|-5-----6-5-------5-------5------5-----6-5-------5-------5------|
G|---5-------7-5-7---5---7---5------5-------7-5-7---7-5-7---7-5--|
D|-----7---------------7-------7------7--------------------------|
A|---------------------------------------------------------------|
E|---------------------------------------------------------------| [x2]


*CORO [x2]

Am - Dm - Em - Am [x4] 

Fuente: tusacordes.com