a b c d e f g h i j k l m n o p q r s t u v w x y z 0-9

Rayando El Sol

Mana

			
intro:

e-------0-------------0-------------0-------
B---------0-------------0-------------0-----
G-----0------5------2-----5-------0-----5---
D---0-------------0-------------2-----------
A-2-------------0-------------2-------------
E-------------------------------------------

e--------0---------
B----------0-------
G------0-----5----- LA INTRO DOS VECES.
D----2-------------
A--3---------------
E------------------

ESTO ES ANTES DE ENTRAR AL CORO:

e--0-----0-----0------------
B----3-----3-----3----------
G------2-----2-----2--------
D---------------------------
A---------------------------
E---------------------------

CORO:

e-----------------------------
B-----------------------------
G-----------------------------
D----4--2--0H2--0H2--2--------
A-5--2--2--0H2--0H2--3--------
E-3---------------------------

e-------------------
B-------------------
G-------------------
D----4--5--7--------
A-5--2--3--5--------
E-3-----------------

Fuente original ATAME [www.atame.org]
Colaborador original: ISRAEL BITER SNORKEL [SNORKEL59@LATINMAIL]

Fuente: tusacordes.com