a b c d e f g h i j k l m n o p q r s t u v w x y z 0-9

Rayando El Sol

Mana

			
Intro:

G-|---------------------|----------------------|----------------------|----------------------|
D-|--------0-0---4---0--|---------------2------|-----0---------4---0--|-----2-----2-0-4-0----|
A-|-----2---------------|-----2---3-3-------3--|---------2-2----------|-3-------3------------|
E-|-3-------------------|-0--------------------|-3--------------------|-------------------0|


Verso 1

Rayando el sol, rayando por ti, esta pena me duele me quema sin tu amor.

G-|---------------------|----------------------|----------------------|----------------------|
D-|--------------2------|-0---4---0-----2------|---------------2------|-0---4---0-----2------|
A-|-----5--3-3-------3--|-----------3-------3--|-----5---3-3-------3--|-----------3-------3--|
E-|-3-------------------|----------------------|-3--------------------|----------------------|


no me has llamado estoy desesperado, son muchas lunas las que te he llorado

G-|-----------------------------------|-----------------------------------|
D-|----4-------2--------4-------4-----|----4-------2--------4-------------|
A-|-2-----3-3-----3--5-----5-5-----5--|-2-----3-3-----3--5-----5-5--------|
E-|-----------------------------------|-----------------------------------|


Chorus:

Rayando el sol (o-e-oh), desesperación, es mas fácil llegar al sol que a tu 
corazón

G-|---------------------|----------------------|----------------------|----------------------|
D-|--------0-0---4---0--|---------------2------|-----0---------4---0--|-----2-----2-0-4-0----|
A-|-----2---------------|-----2---3-3-------3--|---------2-2----------|-3-------3------------|
E-|-3-------------------|-0--------------------|-3--------------------|----------------------|


Me muero por ti (o-e-oh), viviendo sin ti, y no aguanto me duele tanto estar 
asi, rayando el sol

G-|---------------------|----------------------|----------------------|----------------------|
D-|--------0-0---4---0--|---------------2------|-----0---------4---0--|-----2-----2-0-4-0----|
A-|-----2---------------|-----2---3-3-------3--|---------2-2----------|-3-------3------------|
E-|-3-------------------|-0--------------------|-3--------------------|-------------------0|


Verso 2 idem verso 1

Chorus: idem chorus 1


Solo guitarra acústica

G-|---------------------|----------------------|----------------------|----------------------|
D-|-----2--------2------|-----4---------4------|-----4---------2------|-----2----------------|
A-|-3------3-3-------3--|-5------5-5-------5---|-2-------3-3-------3--|-5-------5-5----------|
E-|---------------------|----------------------|----------------------|----------------------|


Solo armónica
                                           s s s s s s s s s s s s s s s s
G-|------------|------------|------------|---------------------------------|
D-|------------|------------|------------|---------------------------------| 
  s=16 avo de nota
A-|--7------2--|--3------5--|---------2--|---------------------------------|
E-|------------|------------|--0---------|-3-3-3-3-3-3-3-3-5-5-5-5-5-5-5-5-|


Chorus: idem chorus 1

estructura de chorus hasta el final


Chord & Lyrics

Intro: G - D - Em - C - G - B - C - D - Em

          G    C            D
Rayando el sol, rayando por ti
       G              C              D    C
esta pena me duele, me quema sin tu amor
    B               C         D
no me has llamado estoy desesperado
    B               C           D
son muchas lunas las que te he llorado

Chorus:

            G        D           Em       C
Rayando el sol(o-e-oh), desesperación
         G              B             C       D
es más fácil llegar al sol que a tu corazón
            G        D           Em        C
me muero por ti(o-e-oh), sintiendome así
         G              B             C       D
y no aguanto, me duele tanto estar así
           Em
rayando el sol

A tu casa yo fui, y no te encontré
en el parque en la plaza en el cine yo te busqué
te tengo atrapada entre mi piel y mi alma
más ya no puedo tanto, y quiero estar junto a ti

Chorus

Solo

Chorus

Rayando, rayando, rayando el sol
rayando, ayyy ayyyy ayyyyy ayyyy
rayando el sollll


Bueno, colegas bajistas espero que les guste y disfrutenla
Cualquier duda o corrección mandenme un mail a joaco_birba@hotmail.com

Copyright®  Joaquín Birba 2000

Fuente original ATAME [www.atame.org]
Colaborador original: Joaquín Birba [joaco_birba@hotmail.com]

Fuente: tusacordes.com