a b c d e f g h i j k l m n o p q r s t u v w x y z 0-9

Rayando El Sol

Mana

			
TITULO.- RAYANDO EL SOL                                             
GRUPO.- MANA

ARREGLO DESPUES DEL PRIMER CORO :  EL LIGADO ES  " *" , Y EL SLIDE ES : 
"/"

                                                             P.H. W/BAR
E |--12^--12*10---------------------------------------------------------------------------------------------------------|
B|-------------------12*10*12*12------8~~ ------------------------------------------------------------------------------|
G|----------------------------------------------------------------------------------------------------------------------|
D|----------------------------------------------------------------------------------------------------------------------|
A|----------------------------------------------------------------------------------------------------------------------|
E|----------------------------------------------------------------------------------------------------------------------|

      SOLO CON DISTORSION, FUZZ,REVERB,DELAY:

E|---10/12--12^---12*10*12^--------/10 * 12----10-----------------------------------------------------------------------|
B|-------------------------------------------------------------12--10---------------------------------------------------|
G|----------------------------------------------------------------------11/5---6/11-11-11-11--11*9/7--------------------|
D|-------------------------------------------------------------------------------------------------------------9--7--9-|
A|----------------------------------------------------------------------------------------------------------------------|
E|----------------------------------------------------------------------------------------------------------------------|

E|------------7-------------------------8----------------------------------12--12*14--12----------12--12/14--12--------
B|------7-7-----10------------8----------8--------------7------10/12---------------------12--10-------------------------|
G|-7-7--------------9-------------9----------9-------------7------------------------------------------------------------|
D|----------------------10-----------------------10---------------------------------------------------------------------|
A|----------------------------------------------------------------------------------------------------------------------|
E|----------------------------------------------------------------------------------------------------------------------|

        SIN DISTOR , CON CHORUS,REVERB Y DELAY:

E|----------10--8~~ 8/12~ -15--12~~ --12--10~~ --12-15-14-12------------------------------------------------------------|
B|---8*10-------------------------------------------------------------------------------------15-13*12---13-/-15-------
G|----------------------------------------------------------------------------------------------------------------------|
D|----------------------------------------------------------------------------------------------------------------------|
A|----------------------------------------------------------------------------------------------------------------------|
E|----------------------------------------------------------------------------------------------------------------------|


Transcripcion hecha por David Garcia d197@hotmail.com

Fuente original ATAME [www.atame.org]
Colaborador original: David Garcia [d197@hotmail.com]

Fuente: tusacordes.com