a b c d e f g h i j k l m n o p q r s t u v w x y z 0-9

Oye Mi Amor

Mana

Bm
A
B
G
D
			
 
Aguante JUJUY si tiene un problema contactame crespo_2999@hotmail.com


Bm                 Fm7    RIFF1
NO SABES COMO TE DESEO
Bm                  Fm7   RIFF1
NO SABES COMO TE HE SOÑADO
Bm                    Fm7   RIFF1
SI TU SUPIERAS QUE ME MUERO
Bm                Fm7   RIFF1
POR TU AMOR Y POR TUS LABIOS

Bm                    Fm7   RIFF1
SI TU SUPIERAS QUE SOY SINCERO
Bm                         Fm7  RIFF1
QUE YO SOY DERECHO Y NO TE FALLO
Bm                   Fm7  RIFF1
SI TU SUPIERAS LO QUE TE QUIERO
Bm                      Fm7  RIFF1
PODRÍA DARTE TODO HASTA MIS OJOS


PRECORO:

A                       B  RIFF2
 PERO TU YA TIENES OTRO
A                       B  RIFF3
 UN TIPO FRIO Y ABURRIDO
A                        G
 UN TONTO QUE ES UN REPRIMIDO
                 A 
ESO NO TE PEGA A TI
G          A  RIFF4
  NO TE VA

CORO:[EN EL CORO VA LA FIGURA QUE LES PUSE HASTA ABAJO
NECESITAN ESCUCHAR EL DICO PARA SABER QUE RITMO LLEVA]

D           A 
OYE MI AMOR
   Bm             A 
NO ME DIGAS QUE NO
  D         A         Bm  A 
Y VAMOS JUNTANDO LAS ALMAS
D           A 
OYE MI AMOR
   Bm             A 
NO ME DIGAS QUE NO
   D        A             Bm A 
Y VAMOS JUNTANDO LOS CUERPOS


Bm/Fm7 Bm/Fm7

Bm                Fm7  RIFF1
CONMIGO TU ALUCINARIAS COMO NO!
Bm                           Fm7  RIFF1
CONMIGO TU HASTA EL FIN DE EL MUNDO
Bm                Fm7  RIFF1
CONTIGO YO ME PERDERIA
Bm                       Fm7  RIFF1
CONTIGO YO QUIERO TODO Y NADA A MEDIAS




PRECORO:

A                       B  RIFF2
 PERO TU YA TIENES OTRO
A                       B  RIFF3
 UN TIPO FRIO Y ABURRIDO
A                        G
 UN TONTO QUE ES UN REPRIMIDO
                 A 
ESO NO TE PEGA A TI
G          A  RIFF4
  NO TE VA

CORO: [AQUÍ SE REPITE LA FIGURA DE ABAJO]

D           A 
OYE MI AMOR
   Bm             A 
NO ME DIGAS QUE NO
  D         A         Bm  A 
Y VAMOS JUNTANDO LAS ALMAS
D           A 
OYE MI AMOR
   Bm             A 
NO ME DIGAS QUE NO
   D        A             Bm A 
Y VAMOS JUNTANDO LOS CUERPOS

SOLO:

E/-------------/
B/---7---8-----/
G/--7------7---/
D/-9---------9-/
A/-------------/
E/-------------/




CORO: [AQUÍ SE REPITE LA FIGURA DE ABAJO]


D           A 
OYE MI AMOR
   Bm             A 
NO ME DIGAS QUE NO
  D         A         Bm  A 
Y VAMOS JUNTANDO LAS ALMAS
D           A 
OYE MI AMOR
   Bm             A 
NO ME DIGAS QUE NO
   D        A             Bm A 
Y VAMOS JUNTANDO LOS CUERPOS

SOLO:

E/-------------/
B/---7---8-----/
G/--7------7---/
D/-9---------9-/
A/-------------/
E/-------------/

AL FINAL ACOMPAÑA LAGUITARRA 1 LOS SIG.
ACORDES CON EL RIFF5:

D    A    Bm   A 
 OH!  OH!  OH!  OH!

D    A    Bm   A 
 OH!  OH!  OH!  OH!

FINAL:

E/----------------------------------------------------/
B/----------------------------------------------------/
G/-9-7-7-7-9-7-9-7-7-7-7-9-7-9-7-7-7-7-9-7-9-7-7-7-7--/
D/----------------------------------------------------/
A/----------------------------------------------------/
E/----------------------------------------------------/


ACORDES:

   B  A  G
E/-7--5--3--/
B/-7--5--3--/
G/-8--6--4--/
D/-9--7--5--/
A/-9--7--5--/
E/-7--5--3--/








RIFF1:

E/-------7-------------------/
B/---------7-8---------7-8---/
G/---7-------------7-------6-/
D/-9---9---------9---9-------/
A/---------------------------/
E/---------------------------/


RIFF2:

E/--------------------------------/
B/-7/9-7-7-7/9-7-7-7/9 7-7-7/9-7--/
G/-7/9-7-7-7/9-7-7-7/9 7-7-7/9-7--/
D/--------------------------------/
A/--------------------------------/
E/--------------------------------/


RIFF3:

E/----------------------/
B/-7/9-7-7-7/9-7-7-7-9--/
G/-7/9-7-7-7/9-7-7-7-9 -/
D/----------------------/
A/----------------------/
E/----------------------/


RIFF4:

E/----------------/
B/-7/9-7-7-7/9-7--/
G/-7/9-7-7-7/9-7--/
D/----------------/
A/----------------/
E/----------------/


RIFF5:[AQUÍ LES RECOMIENDO QUE USEN UNA CEJILLA EN
EL TRASTE 7 EN LAS PRIMERAS TRES CUERDAS]

E/-7-7-7--------7-7-7--------7-7-7----------7-7-7---------/
B/-7-7-7-8-8-7--7-7-7-8-8-7?-7-7-7-10-10-8--7-7-7-10-10-7-/
G/-7-7-7-7-7-7?-7-7-7-7-7-7?-7-7-7-7--7--7--7-7-7-7--7--7-/
D/--------------------------------------------------------/
A/--------------------------------------------------------/
E/--------------------------------------------------------/



ACOMPAÑAMIENTO DEL CORO::[AQUÍ LES RECOMIENDO QUE USEN UNA
CEJILLA EN  EL TRASTE 7 EN LAS PRIMERAS TRES CUERDAS]

E/--------------------------------7---------/
B/-7-8-8-7?-7-10-10-8-7?-7-8-8-7?-7-10-8-7--/
G/-7-7-7-7?-7-7--7--7-7--7-7-7-7--7-7--7-7--/
D/------------------------------------------/
A/------------------------------------------/
E/------------------------------------------/ 

Fuente: tusacordes.com