a b c d e f g h i j k l m n o p q r s t u v w x y z 0-9

Oye Mi Amor

Mana

			
Verso.-
|------------------|
|----4-5-----------|
|-2--------5--5-4--|
|------------------|

Pre-Coro.- Pero tu ya tienes otro....
|----------------------------|
|----------------------------|  2x
|----------------------7-5-4-|  Seguido por
|--5-55--5-55--7-77----------|

|-----------------------------------------------|
|-----------------------------------------------|
|---------------------2-22----------------------|
|-5-55--5-55---3-33----------5-55--3-33--5-55---|

Coro.- Oye mi amor, no me digas que no..
|-------------------------------------------------------|
|-------------------------------------------------------|
|--5-55------------------------5-55---------------------|   2x
|-------5-55--7-77--3-33-3h5--------5-55--3-33--5-55----|

Verso
(Pre-Coro)
Coro

1er Requinto.-
|----------------------------------------|   
|-------------------------------77-5-4---|      
|-5555-5---5555-5-------7---5555---------| Seguido por..
|-----5--------5----5555-5---------------|

|------------------------------------------|
|------------------------------------------|
|--5555-5--5555-5-------7------------------| 
|------5-------5----5555-5---3333-55-3-2---|

Repite el coro

2do. Requinto.-
|------------------------------------------|
|------------------------------------------|
|--5555-5--5555-5-------7------------------| Seguido por..
|------5-------5----5555-5---3333-55-3-2---|

|---------------------------------------|
|-------------------------------77-5-4--|
|-5555-5--5555-5------7----5555---------|  
|-----5-------5---5555-5----------------|  

Repite el 2do. requinto hasta que se acabe la rola

Comentarios o Sugerencias

Fuente original ATAME [www.atame.org]
Colaborador original: Andy Valles [avr18923@aol.com]

Fuente: tusacordes.com