a b c d e f g h i j k l m n o p q r s t u v w x y z 0-9

Oye Mi Amor (unplugged)

Mana

			
Bueno esta es mi transcripción de esta canción haber que tal:
El ritmo del intro es algo difícil de explicar pero aquí esta, 
las letras indican el movimiento de la mano:

****************  INTRO *****************

S = sube
B = baja 

    B  S       B        B    S      B      B   S       B       B    S         B
E --2---2-----2---------2----2-----2-------0----0------0-------2----2-------2------------
B --3---3-----3---------3----3-----3-------2----2------2-------3----3-------3------------
G --4---4-----4---------4----4-----4-------2----2------2-------4----4-------4------------
D --4---4-----4---------4----4-----4-------2----2------2-------4----4-------4------------
A --2---2-----2---------2----2-----2-------0----0------0-------2----2-------2------------
E --2---2-----2---------2----2------2------0----0------0-------2----2-------2-----------

********** RITMO BASE PARA LA CANCIÓN *****************

S = sube
B = baja

    B      S       B
e --2------2-------0---------------
b --3------3-------2---------------
g --4------4-------2---------------
d --4------4-------2---------------
a --2------2-------0---------------
e --2------2-------0---------------

*************** ARPEGIO *********************
el arpegio va de la siguiente manera:
e -------------2--------------------0-------
b ---------3------3-------------2-----2----
g ------4--------------------2--------------
d -------------4--------------------2-------
a ------------------------0------------------
e ---2---------------------------------------

******* RIFF 1 ************************ RIFF 2*********************** RIFF 3 ******

E ----7--7--7--7--8/7-------+---------6--6--6---7--7--------+-------7--6--7--5-----
B ----7--7--7--7--8/7-------+---------5--5--5---7--7--------+-------7--7--7--6-----
G ----7--7--7--7--8/7-------+---------6--6--6---7--7--------+----------------------


***********************************************************************************

[en esta parte se toca con el ritmo base]

No sabes cómo te deseo   [riff 1]
No sabes cómo te he soñado   [riff 2]
Si tú supieras que me muero    [riff 1]
Por tu amor por tu amor y por tus labios  [riff 3]

[se repite el INTRO y lo que sigue con el ritmo base]

Si tú supieras que soy sincero   [riff 1]
Que yo soy derecho y no me rajo   [riff 2]
Si tú supieras lo que te quiero    [riff 1]
Podría darte todo hasta mis ojos   

EH!

Precoro:

[aquí el ritmo de la mano es en cada pisada en el siguiente orden: Baja-Sube-Baja]

A                      Bm
Pero tú ya tienes otro
A                       Bm
Tipo frío y aburrido
A                                     G
Un tonto que es un reprimido
                            A
Eso no te pega a ti
G          A
No te va


[arpegio]

Oye mi amor
No me digas que no
Y vamos juntando las almas
Oye mi amor
No me digas que no 
Y vamos juntando los cuerpos

[se repite INTRO]

sin guitarra
// Contigo yo me perdería
Contigo yo me perdería
Contigo yo hasta el fin del mundo //

[vuelve el ritmo base]
Contigo yo quiero todo   [riff 1]
Y nada a medias    

Eh!

Precoro:
[mismo ritmo que el anterior precoro]

A                       Bm
Pero tu ya tienes otro
A                          Bm
Un tipo frío y aburrido
A                                      G
Un tonto que es un reprimido
                            A
Eso no te pega a ti
G           A
No te va

[ vuelve al ritmo base una guitarra  y la otra con arpegio]

Oye mi amor    
No me digas que no    
Y vamos juntando las almas 
Oye mi amor
No me digas que no
Y vamos juntando los cuerpos

-Aquí sigue una guitarra con ritmo base y otra a tocar con arpegio -


Ehhh!!!!!

Solo de trompeta

Oh yeh   oh yeh
Oh yeh     oh yeh
Oh ye      oh yeh
Ye ye ye    ye ye ye
Oh oh oh    oh oh oh
Oh oh oh    oh oh oh
Eh eh eh      eh eh eh
Eh eh ehe eh eh eh

Alex: ( ¡¡¡¡ 1, 2 , 1-2-3 !!!!)

[aquí cambia el ritmo, y lo que sigue se toca seguido sin cortar el ritmo]

e -----------------------------------------------------
b ----5--5--5--4--4--2--2--4--4--0----------------               x 7
g -----------------------------------------------------

el último queda así:

e ------------------------------------------------------
b ----5--5--5--4--4--2--2--2--2--------------------
g ------------------------------------------------------

-Sigue el arpegio ?

¡¡¡Ya nos vamos Miami !!!

- La guitara deja de tocar -

Nosotros somos Maná, buenas noches....

************** FIN ***************

Fuente original ATAME [www.atame.org]
Colaborador original: Luis Lee [leechiming@hotmail.com]

Fuente: tusacordes.com