a b c d e f g h i j k l m n o p q r s t u v w x y z 0-9

Ojala Pudiera Borrarte

Mana

			
INTRO

G Gmaj7 X4

G  Gmaj7         C                      D                   G
Ojala y te me borraras de mis sueños, y poder desdibujarte.
G  Gmaj7               C                  D                  G
Ojala y pudiera ahogarte en un charco lleno de rosas y amor,
G  Gmaj7              C                    D                     G
Ojala y se me olvidara hasta tu nombre, ahogarlo dentro del mar,
G  Gmaj7             C                 D             G
Ojala y que tu sonrisa de verano se pudiera ya borrar.

Em     D    C    G                D
Vuelve corazón, uh, vuelve  a mi lado,
E-||-------3---------2----------0--------------|
B-||---------0---------0----------1------------|
G-||-----4---------4---------0-------------5-4-|
D-||--5---------4---------2----------------5-5-| RIFF 1
A-||-------------------------------------------|
E-||-------------------------------------3-----|

E-||------0---------3---|
B-||---------2------3---|
G-||----3-----------4---|   RIFF 2
D-||----------------5---|
A-||----------------5---|
E-||----------------3---|
Em     D    C        Em                      Bm
Vuelve corazón, no vuelve, no vuelve, no vuelve.

RIFF 1

RIFF 2
C                G                   Bm                 Em
Ojala y te me borraras para siempre,de mi vida,para no volverte a ver,
E-||-------------------------------------------|
B-||-------------------------------------------|
G-||-------------------------------------------|  RIFF 3
D-||---5----------------------------------4----|
A-||-3-----------5---------------------2-------|
E-||-----------3-------------------------------|


E-||----------------------|
B-||----------------------|
G-||------0---------------| RIFF 4
D-||----4-----------------|
A-||---7------7-5---------|
E-||-7--------------------|



C                  G                            Bm                     Em
Y ojala y te me borraras por las noches, en el dia, para no volverte a ver,

RIFF 3

RIFF 4

C                    G                        Bm                     C
Y ojala y te me esfumaras de mis sueños vida mia para no volverte a ver

E-||-------------------------------------------|
B-||-------------------------------------------|
G-||-------------------------------------------|  RIFF 5
D-||---5----------------------------------4----|
A-||-3-----------5---------------------2-------|
E-||-----------3-------------------------------|

E-||-------------------------------------------|
B-||-------------------------------------------|
G-||-------------------------------------------|  RIFF 6
D-||---5---------7-----------------------------|
A-||-3---------5-----------5-------------------|
E-||---------------------3---------------------|



D
No

ni en sueños.


SOLO
E-||--------------------------------------------|
B-||------------3-3-3/5-------------------------|
G-||-------4-5-------------------2-4-5-5-4-2-4--|
D-||--4/5-------------------5/4-----------------|
A-||-------------------------------------------5|
E-||--------------------------------------------|

E-||------------------------------5-------------|
B-||--------------------8-------------8-7-8-----|
G-||--2/4---4---4--5-5----4-5?5/7---------------|
D-||------5---5---------------------------------|
A-||--------------------------------------------|
E-||--------------------------------------------|

G                C                 D                       G
Como puedo yo borrar tus besos vida, estan tatuados en mi piel,

E-||--10------------------------------------7---|
B-||------8--------------------------7------8---|
G-||-----------------------------------7--------|
D-||-------------10-----------------------------|
A-||--------------------------------------------|
E-||--------------------------------------------|



G                      C               D                   G
Quiero de una vez por todas ya largarme, y borrarte de mi ser.

E-||-7--------------------------------|
B-||---------8---------8---7------8---|
G-||---------9-------------7---7------|
D-||------9-----------------------9---|
A-||----------------------------------|
E-||----------------------------------|

G     Gmaj7                C                      D                    G
Ojala y la lluvia  me ahogue entre tus brazos, para no pensar en ti,
G     Gmaj7          C               D                    G
O que pase un milagro, pase algo, que me lleve hasta ti.

Em     D    C    G               D
Vuelve corazon, uh, vuelve a mi lado,

RIFF 1

RIFF 2
Em                              C
Pero no, no, no, no vuelve corazon,

RIFF 1

Em                           Bm
No vuelve, no vuelve, no vuelve no.

RIFF 2
C                 G                           Bm                   Em
Ojala y te me borraras para siempre de mi vida, para no volverte a ver,
RIFF 3

RIFF 4
C                  G                            Bm                    Em
Y ojala y te me borraras por las noches, en el dia para no volverte a ver.
RIFF 3

RIFF 4
C                  G                         Bm                      Em
Ojala y te me esfumaras de mis sueños, vida mia, y que no me lluevas mas,
RIFF 3

RIFF4
C                 G                          Bm                        C
Y ojala y que la lluvia me ahogue entre tus brazos para no volverte a ver,
RIFF 5

RIFF 6
D           Em    C                    D
No, ni en sueños, pa? que pares de llover,

outro:

G Am C D
sueños,
G C C D
sueños,
G C C D
oh, sueños.

Gmaj7
1--2---------|
2--3---------|
3--0---------|
4--0---------|
5--2---------|
6--3---------|

Fuente: Tusacordes