a b c d e f g h i j k l m n o p q r s t u v w x y z 0-9

Ojala Pudiera Borrarte

Mana

			
[solo]
    G              C            D          G
E-||---------------------------------|---------------------------------|
B-||----------------3-3-3/5-------|------------------------------------|
G-||---------4-5-------------------|----2-4-5--5-----4-2-4-------------|
D-||-4/5-----------------------5/4|----------------------------0-------|
A-||---------------------------------|---------------------------------|
E-||---------------------------------|---------------------------------|
    G               C        D                  G
E-||------------------------------|--------5--5-----------------|
B-||------------------8----------|----------------8-7-8---------|
G-||--2/4---4--4--7-7---4-5-|---5/7-----------------------------|
D-||-------5--5-----------------|-------------------------------|
A-||------------------------------|-----------------------------|
E-||------------------------------|-----------------------------|

E-||-10---------------------|
B-||--------8---------------|
G-||----------------5-------|
D-||------------------------|
A-||------------------------|
E-||------------------------|

Fuente: tusacordes.com