a b c d e f g h i j k l m n o p q r s t u v w x y z 0-9

No Ha Parado De Llover

Mana

D
A
Bm
G
F#m
			
INTRO:

e|-----------------------------------------0----2----0--
B|----3----3----3----3----3------3----3-----------------
G|---2----2----2----2----2------2----2----2----2----2---
D|------------------------------------------------------
A|------------------------------------------------------
E|------------------------------------------------------
                                                           
e|---2----2----2----2----2------3----3----0----5--------| x2
B|--3----3----3----3----3------3----3----3----3---------|
G|------------------------------------------------------|
D|------------------------------------------------------|
A|------------------------------------------------------|
E|------------------------------------------------------|

   D             A 
Desde que te perdí
Bm               G            D    A 
   La luz se ha puesto muy mojada
Bm          G          D       A 
   Mirada triste esta nublada
         Bm          G            D
Y en mis ojos no ha parado de llover.



e|-----------------------------------------0----2----0--|
B|----3----3----3----3----3------3----3-----------------|
G|---2----2----2----2----2------2----2----2----2----2---|
D|------------------------------------------------------|
A|------------------------------------------------------|
E|------------------------------------------------------|






D           A 
Solo ya sin ti
Bm           G               D   A 
  Me tienes como un perro herido
Bm           G                  D    A 
  Me tienes como un ave sin su nido
     Bm           G           D
Estoy solo como arena sin su mar.



e|-----------------------------------------0----2----0--|
B|----3----3----3----3----3------3----3-----------------|
G|---2----2----2----2----2------2----2----2----2----2---|
D|------------------------------------------------------|
A|------------------------------------------------------|
E|------------------------------------------------------|



CORO:
Bm             G                A 
  Quien detendrá la lluvia en Mí 
F#m    Bm   G              D           A 
Oh no no,    se me ha inundado el corazón
Bm             G               A 
  Quien detendrá la lluvia en Mi 
F#m     G               A        D
Oh mi amor, solo tú puedes pararla.

Sigue lloviendo,
                          Bm   G
Le sigue lloviendo al corazón
           D              A 
Dime que diablos voy a hacer
D
Sigue lloviendo
                           Bm
Le sigue lloviendo al corazón
       G          D
Oh no no, y en mis ojos
         A          D
No ha parado de llover.






D            A 
  No te comprendo
      Bm           G
No entiendo que paso
D         A        Bm          G
Si te di todo, quizá te di de mas.
       D       A        Bm
Dime que falto, dime que sobro
G       D      A           Bm
 Dime que paso, pero dime algo
  G               D
Pues me estoy muriendo.




e|-----------------------------------------0----2----0--|
B|----3----3----3----3----3------3----3-----------------|
G|---2----2----2----2----2------2----2----2----2----2---|
D|------------------------------------------------------|
A|------------------------------------------------------|
E|------------------------------------------------------|



CORO....

Fuente: Tusacordes