a b c d e f g h i j k l m n o p q r s t u v w x y z 0-9

No Ha Parado De Llover

Mana

			
PRIMERA GUITARRA

                              INTRO


   e-----------------------------------0---2---0--------------
   B---3---3---3---3---3-------3---3--------------------------
   G-2---2---2---2---2-------2---2---2---2---2----------------
   D----------------------------------------------------------
   A----------------------------------------------------------
   E----------------------------------------------------------


   e---2---2---3---3---3---2---2---0---5----------------------I
   B-3---3---3---3---3---3---3---3---3------------------------I
   G----------------------------------------------------------I
   D----------------------------------------------------------I
   A----------------------------------------------------------I
   E----------------------------------------------------------I
                                --?BIS??

                       ESTROFA 1

   e--2-2XX--00-------------22X--3XX333----------I
   B--3-3XX--22-------------33X--3XX333----------I
   G--2-2XX--22-------------44X--4XX444----------I
   D--0-0XX--22-------------44X--5XX555----------I
   A---------00-0-2-4-5-2-2-22X--5XX555----------I
   E-----------------------------3XX333----------I


   e--2-2XX--00-------------22X--3XX333----------I
   B--3-3XX--22-------------33X--3XX333----------I
   G--2-2XX--22-------------44X--4XX444----------I
   D--0-0XX--22-4-2---------44X--5XX555----------I
   A---------00-----5-2-5-2-22X--5XX555----------I
   E-----------------------------3XX333----------I

   e--2-2XX--00-------------22X--3XX333----------I
   B--3-3XX--22-------------33X--3XX333----------I
   G--2-2XX--22-------------44X--4XX444----------I
   D--0-0XX--22-------------44X--5XX555----------I
   A---------00-0-2-4-5-2-2-22X--5XX555----------I
   E-----------------------------3XX333----------I


                    ARPEGIO 1

 e------------------------------------------------I
 B---3---3---3---3---3------3---3---3---3---3-----I
 G-2---2---2---2---2------2---2---2---2---2-------I
 D------------------------------------------------I
 A------------------------------------------------I
 E------------------------------------------------I


                             ESTROFA 2


   e--2-2XX--00-------------22X--3XX333----------I
   B--3-3XX--22-------------33X--3XX333----------I
   G--2-2XX--22-------------44X--4XX444----------I
   D--0-0XX--22-------------44X--5XX555----------I
   A---------00-0-2-4-5-2-2-22X--5XX555----------I
   E-----------------------------3XX333----------I


   e--2-2XX--00-------------22X--3XX333----------I
   B--3-3XX--22-------------33X--3XX333----------I
   G--2-2XX--22-------------44X--4XX444----------I
   D--0-0XX--22-4-2---------44X--5XX555----------I
   A---------00-----5-2-5-2-22X--5XX555----------I
   E-----------------------------3XX333----------I

   e--2-2XX--00-------------22X--3XX333----------I
   B--3-3XX--22-------------33X--3XX333----------I
   G--2-2XX--22-------------44X--4XX444----------I
   D--0-0XX--22-------------44X--5XX555----------I
   A---------00-0-2-4-5-2-2-22X--5XX555----------I
   E-----------------------------3XX333----------I

                      ARPEGIO 2


 e----------------------------------0---2---0-----I
 B---3---3---3---3---3------3---3-----------------I
 G-2---2---2---2---2------2---2---2---2---2-------I
 D------------------------------------------------I
 A------------------------------------------------I
 E------------------------------------------------I


                         PRECORO

   e-----2XXX--333333XXX------5XXX--222222XXX------2XXX-----I
   B-----3XXX--333333XXX------5XXX--222222XXX------3XXX-----I
   G-44444XXX--444444XXX------6XXX--222222XXX--44444XXX-----I
   D-44444XXX--555555XXX--77777XXX----4444XXX--44444XXX-----I
   A-22222XXX----5555XXX--77777XXX----4444XXX--22222XXX-----I
   E-------------3333XXX--55555XXX----2222XXX---------------I

   e--333333XXX--------0-------0-5------2XXX--333333XXX-----I
   B--333333XXX----3-------3------------3XXX--333333XXX-----I
   G--444444XXX--2---2---2---2------44444XXX--444444XXX-----I
   D--555555XXX---------------------44444XXX--555555XXX-----I
   A----5555XXX---------------------22222XXX----5555XXX-----I
   E----3333XXX---------------------------------3333XXX-----I

   e------5XXX--222222XXX---3-33-3---3-33-55-5555----------I
   B------5XXX--222222XXX---3-33-3---3-33-55-5555----------I
   G------6XXX--222222XXX---4-44-4---4-44-66-6666----------I
   D--77777XXX----4444XXX---5-55-5---5-55-77-7777----------I
   A--77777XXX----4444XXX---5-55-5---5-55-77-7777----------I
   E--55555XXX----2222XXX---3-33-3---3-33-55-5555----------I

                             CORO



   e-----------------------------------0---2---0--------------
   B---3---3---3---3---3-------3---3--------------------------
   G-2---2---2---2---2-------2---2---2---2---2----------------
   D----------------------------------------------------------
   A----------------------------------------------------------
   E----------------------------------------------------------


   e---2---2---3---3---3---2---2---0---5----------------------I
   B-3---3---3---3---3---3---3---3---3------------------------I
   G----------------------------------------------------------I
   D----------------------------------------------------------I
   A----------------------------------------------------------I
   E----------------------------------------------------------I
                                 ?BIS?


                            ESTROFA 3

   e--2-2XX--00-------------22X--3XX333----------I
   B--3-3XX--22-------------33X--3XX333----------I
   G--2-2XX--22-------------44X--4XX444----------I
   D--0-0XX--22-------------44X--5XX555----------I
   A---------00-0-2-4-5-2-2-22X--5XX555----------I
   E-----------------------------3XX333----------I


   e--2-2XX--00-------------22X--3XX333----------I
   B--3-3XX--22-------------33X--3XX333----------I
   G--2-2XX--22-------------44X--4XX444----------I
   D--0-0XX--22-4-2---------44X--5XX555----------I
   A---------00-----5-2-5-2-22X--5XX555----------I
   E-----------------------------3XX333----------I

   e--2-2XX--00-------------22X--3XX333----------I
   B--3-3XX--22-------------33X--3XX333----------I
   G--2-2XX--22-------------44X--4XX444----------I
   D--0-0XX--22-------------44X--5XX555----------I
   A---------00-0-2-4-5-2-2-22X--5XX555----------I
   E-----------------------------3XX333----------I

   e--2-2XX--00-------------22X--3XX333----------I
   B--3-3XX--22-------------33X--3XX333----------I
   G--2-2XX--22-------------44X--4XX444----------I
   D--0-0XX--22-4-2---------44X--5XX555----------I
   A---------00-----5-2-5-2-22X--5XX555----------I
   E-----------------------------3XX333----------I

                         ARPEGIO 2

 e----------------------------------0---2---0-----I
 B---3---3---3---3---3------3---3-----------------I
 G-2---2---2---2---2------2---2---2---2---2-------I
 D------------------------------------------------I
 A------------------------------------------------I
 E------------------------------------------------I

                            PRECORO

   e-----2XXX--333333XXX------5XXX--222222XXX------2XXX-----I
   B-----3XXX--333333XXX------5XXX--222222XXX------3XXX-----I
   G-44444XXX--444444XXX------6XXX--222222XXX--44444XXX-----I
   D-44444XXX--555555XXX--77777XXX----4444XXX--44444XXX-----I
   A-22222XXX----5555XXX--77777XXX----4444XXX--22222XXX-----I
   E-------------3333XXX--55555XXX----2222XXX---------------I

   e--333333XXX--------0-------0-5------2XXX--333333XXX-----I
   B--333333XXX----3-------3------------3XXX--333333XXX-----I
   G--444444XXX--2---2---2---2------44444XXX--444444XXX-----I
   D--555555XXX---------------------44444XXX--555555XXX-----I
   A----5555XXX---------------------22222XXX----5555XXX-----I
   E----3333XXX---------------------------------3333XXX-----I

   e------5XXX--222222XXX---3-33-3---3-33-55-5555----------I
   B------5XXX--222222XXX---3-33-3---3-33-55-5555----------I
   G------6XXX--222222XXX---4-44-4---4-44-66-6666----------I
   D--77777XXX----4444XXX---5-55-5---5-55-77-7777----------I
   A--77777XXX----4444XXX---5-55-5---5-55-77-7777----------I
   E--55555XXX----2222XXX---3-33-3---3-33-55-5555----------I


                                 CORO



   e-----------------------------------0---2---0--------------
   B---3---3---3---3---3-------3---3--------------------------
   G-2---2---2---2---2-------2---2---2---2---2----------------
   D----------------------------------------------------------
   A----------------------------------------------------------
   E----------------------------------------------------------


   e---2---2---3---3---3---2---2---0---5----------------------I
   B-3---3---3---3---3---3---3---3---3------------------------I
   G----------------------------------------------------------I
   D----------------------------------------------------------I
   A----------------------------------------------------------I
   E----------------------------------------------------------I
                                 ?BIS?

                          INTERMEDIO
Esta parte no es que sea dificil, pero el ritmo es un poco fregado,
 oye la rola
para que te guies mejor.

   e--333+---333*---333+-----------------I
   B--333+---333*---333+-----------------I
   G--444+---444*---444+-----------------I
   D--555+---555*---555+-----------------I
   A--555+---555*---555+-----------------I
   E--333+---333*---333+-----------------I

Ya en es parte la guitarra comienza a arpegiar lo que esta abajo:
   e-----------------------------------------------I
   B--------3----------3----------3---------3------I
   G----2-------2---2----2----2-------2---2---2----I
   D--5---5---5---5---------4---4---4---4----------I
   A-----------------------------------------------I
   E-----------------------------------------------I
Ya aqui, deja de arpegiar y comienza a rasgar. Ten cuidado con el cambio
a LA7.

  e--555555555555555555555555-----------------------------I
  B--555555555555555555555555-----------------------------I
  G--666666666666666666666666-----------------------------I
  D--777777777777555555555555-----------------------------I
  A--777777777777777777777777-----------------------------I
  E--555555555555555555555555-----------------------------I

                              CORO
   e-----------------------------------0---2---0--------------
   B---3---3---3---3---3-------3---3--------------------------
   G-2---2---2---2---2-------2---2---2---2---2----------------
   D----------------------------------------------------------
   A----------------------------------------------------------
   E----------------------------------------------------------


   e---2---2---3---3---3---2---2---0---5----------------------I
   B-3---3---3---3---3---3---3---3---3------------------------I
   G----------------------------------------------------------I
   D----------------------------------------------------------I
   A----------------------------------------------------------I
   E----------------------------------------------------------I
                               ?BIS?

                           OUTRO
Bueno, en el outro despuesa de hacer 2 veces el arpegeo del
coro,
se comienza a hacer este:

   e------------0-------------0-5------------I
   B----3---3---------3---3------------------I
   G--2---2---2-----2---2---2----------------I
   D-----------------------------------------I
   A-----------------------------------------I
   E-----------------------------------------I
                REPETIR POR 6 VECES.

Mientras la guitarra 1 hace el arpegeo del outro, la guitarra 4
hace este:

   e-----------------12---------------------12-17------I
   B----15-----15--------------15----15----------------I
   G-14----14-----14--------14----14-----14------------I
   D---------------------------------------------------I
   A---------------------------------------------------I
   E---------------------------------------------------I
                   REPETIR POR 6 VECES.




                      SEGUNADA GUITARRA

                            INTRO


   e----------------------------------0----2----0-------------
   B---3---3---3---3---3-------3---3--------------------------
   G-2---2---2---2---2-------2---2---2---2---2----------------
   D----------------------------------------------------------
   A----------------------------------------------------------
   E----------------------------------------------------------

   e---2---2---3---3---3---2---2---0---5----------------------I
   B-3---3---3---3---3---3---3---3---3------------------------I
   G----------------------------------------------------------I
   D----------------------------------------------------------I
   A----------------------------------------------------------I
   E----------------------------------------------------------I

   e------------------------------------0---2---0-------------I
   B----3---3---3---3---3-------3---3-------------------------I
   G--2---2---2---2---2-------2---2---2---2---2---------------I
   D----------------------------------------------------------I
   A----------------------------------------------------------I
   E----------------------------------------------------------I

   e--------------------------------0---2---------------------I
   B----3---3---3---3---3---3---3-----------------------------I
   G--2---2---2---2---2---2---2---2---2-----------------------I
   D----------------------------------------------------------I
   A----------------------------------------------------------I
   E----------------------------------------------------------I

                               ESTROFA 1

   e--2-2XX--00-------------22X--3XX333----------I
   B--3-3XX--22-------------33X--3XX333----------I
   G--2-2XX--22-------------44X--4XX444----------I
   D--0-0XX--22-------------44X--5XX555----------I
   A---------00-0-2-4-5-2-2-22X--5XX555----------I
   E-----------------------------3XX333----------I


   e--2-2XX--00-------------22X--3XX333----------I
   B--3-3XX--22-------------33X--3XX333----------I
   G--2-2XX--22-------------44X--4XX444----------I
   D--0-0XX--22-4-2---------44X--5XX555----------I
   A---------00-----5-2-5-2-22X--5XX555----------I
   E-----------------------------3XX333----------I

   e--2-2XX--00-------------22X--3XX333----------I
   B--3-3XX--22-------------33X--3XX333----------I
   G--2-2XX--22-------------44X--4XX444----------I
   D--0-0XX--22-------------44X--5XX555----------I
   A---------00-0-2-4-5-2-2-22X--5XX555----------I
   E-----------------------------3XX333----------I


                         ARPEGIO 1

 e------------------------------------------------I
 B---3---3---3---3---3------3---3---3---3---3-----I
 G-2---2---2---2---2------2---2---2---2---2-------I
 D------------------------------------------------I
 A------------------------------------------------I
 E------------------------------------------------I


                            ESTROFA 2


   e--2-2XX--00-------------22X--3XX333----------I
   B--3-3XX--22-------------33X--3XX333----------I
   G--2-2XX--22-------------44X--4XX444----------I
   D--0-0XX--22-------------44X--5XX555----------I
   A---------00-0-2-4-5-2-2-22X--5XX555----------I
   E-----------------------------3XX333----------I


   e--2-2XX--00-------------22X--3XX333----------I
   B--3-3XX--22-------------33X--3XX333----------I
   G--2-2XX--22-------------44X--4XX444----------I
   D--0-0XX--22-4-2---------44X--5XX555----------I
   A---------00-----5-2-5-2-22X--5XX555----------I
   E-----------------------------3XX333----------I

   e--2-2XX--00-------------22X--3XX333----------I
   B--3-3XX--22-------------33X--3XX333----------I
   G--2-2XX--22-------------44X--4XX444----------I
   D--0-0XX--22-------------44X--5XX555----------I
   A---------00-0-2-4-5-2-2-22X--5XX555----------I
   E-----------------------------3XX333----------I

                         ARPEGIO 2

 e----------------------------------0---2---0-----I
 B---3---3---3---3---3------3---3-----------------I
 G-2---2---2---2---2------2---2---2---2---2-------I
 D------------------------------------------------I
 A------------------------------------------------I
 E------------------------------------------------I

                              PRECORO

   e-----2XXX--333333XXX------5XXX--222222XXX------2XXX-----I
   B-----3XXX--333333XXX------5XXX--222222XXX------3XXX-----I
   G-44444XXX--444444XXX------6XXX--222222XXX--44444XXX-----I
   D-44444XXX--555555XXX--77777XXX----4444XXX--44444XXX-----I
   A-22222XXX----5555XXX--77777XXX----4444XXX--22222XXX-----I
   E-------------3333XXX--55555XXX----2222XXX---------------I

   e--333333XXX--2-22--0-0-000------2XXX--333333XXX-----I
   B--333333XXX--3-33--2-2-222------3XXX--333333XXX-----I
   G--444444XXX--2-22--2-2-222--44444XXX--444444XXX-----I
   D--555555XXX--0-00--2-2-222--44444XXX--555555XXX-----I
   A----5555XXX--------0-0-000--22222XXX----5555XXX-----I
   E----3333XXX-----------------------------3333XXX-----I

   e------5XXX--222222XXX---3-33-3---3-33-55-5555----------I
   B------5XXX--222222XXX---3-33-3---3-33-55-5555----------I
   G------6XXX--222222XXX---4-44-4---4-44-66-6666----------I
   D--77777XXX----4444XXX---5-55-5---5-55-77-7777----------I
   A--77777XXX----4444XXX---5-55-5---5-55-77-7777----------I
   E--55555XXX----2222XXX---3-33-3---3-33-55-5555----------I


                               CORO

   e------------------------------------0---2---0-------------I
   B----3---3---3---3---3-------3---3-------------------------I
   G--2---2---2---2---2-------2---2---2---2---2---------------I
   D----------------------------------------------------------I
   A----------------------------------------------------------I
   E----------------------------------------------------------I

   e--------------------------------0---2---------------------I
   B----3---3---3---3---3---3---3-----------------------------I
   G--2---2---2---2---2---2---2---2---2-----------------------I
   D----------------------------------------------------------I
   A----------------------------------------------------------I
   E----------------------------------------------------------I
                               ?BIS?

                            ESTROFA 3


   e--2-2XX--00-------------22X--3XX333----------I
   B--3-3XX--22-------------33X--3XX333----------I
   G--2-2XX--22-------------44X--4XX444----------I
   D--0-0XX--22-------------44X--5XX555----------I
   A---------00-0-2-4-5-2-2-22X--5XX555----------I
   E-----------------------------3XX333----------I

   e--2-2XX--00-------------22X--3XX333----------I
   B--3-3XX--22-------------33X--3XX333----------I
   G--2-2XX--22-------------44X--4XX444----------I
   D--0-0XX--22-4-2---------44X--5XX555----------I
   A---------00-----5-2-5-2-22X--5XX555----------I
   E-----------------------------3XX333----------I

   e--2-2XX--00-------------22X--3XX333----------I
   B--3-3XX--22-------------33X--3XX333----------I
   G--2-2XX--22-------------44X--4XX444----------I
   D--0-0XX--22-------------44X--5XX555----------I
   A---------00-0-2-4-5-2-2-22X--5XX555----------I
   E-----------------------------3XX333----------I

   e--2-2XX--00-------------22X--3XX333----------I
   B--3-3XX--22-------------33X--3XX333----------I
   G--2-2XX--22-------------44X--4XX444----------I
   D--0-0XX--22-4-2---------44X--5XX555----------I
   A---------00-----5-2-5-2-22X--5XX555----------I
   E-----------------------------3XX333----------I

                          PRECORO

   e-----2XXX--333333XXX------5XXX--222222XXX------2XXX-----I
   B-----3XXX--333333XXX------5XXX--222222XXX------3XXX-----I
   G-44444XXX--444444XXX------6XXX--222222XXX--44444XXX-----I
   D-44444XXX--555555XXX--77777XXX----4444XXX--44444XXX-----I
   A-22222XXX----5555XXX--77777XXX----4444XXX--22222XXX-----I
   E-------------3333XXX--55555XXX----2222XXX---------------I

   e--333333XXX--2-22--0-0-000------2XXX--333333XXX-----I
   B--333333XXX--3-33--2-2-222------3XXX--333333XXX-----I
   G--444444XXX--2-22--2-2-222--44444XXX--444444XXX-----I
   D--555555XXX--0-00--2-2-222--44444XXX--555555XXX-----I
   A----5555XXX--------0-0-000--22222XXX----5555XXX-----I
   E----3333XXX-----------------------------3333XXX-----I

   e------5XXX--222222XXX---3-33-3---3-33-55-5555----------I
   B------5XXX--222222XXX---3-33-3---3-33-55-5555----------I
   G------6XXX--222222XXX---4-44-4---4-44-66-6666----------I
   D--77777XXX----4444XXX---5-55-5---5-55-77-7777----------I
   A--77777XXX----4444XXX---5-55-5---5-55-77-7777----------I
   E--55555XXX----2222XXX---3-33-3---3-33-55-5555----------I

                                CORO

   e------------------------------------0---2---0-------------I
   B----3---3---3---3---3-------3---3-------------------------I
   G--2---2---2---2---2-------2---2---2---2---2---------------I
   D----------------------------------------------------------I
   A----------------------------------------------------------I
   E----------------------------------------------------------I

   e--------------------------------0---2---------------------I
   B----3---3---3---3---3---3---3-----------------------------I
   G--2---2---2---2---2---2---2---2---2-----------------------I
   D----------------------------------------------------------I
   A----------------------------------------------------------I
   E----------------------------------------------------------I
                                ?BIS?

                             INTERMEDIO

   e--333+---333*---333+-----------------I
   B--333+---333*---333+-----------------I
   G--444+---444*---444+-----------------I
   D--555+---555*---555+-----------------I
   A--555+---555*---555+-----------------I
   E--333+---333*---333+-----------------I
Se comien a arpegiar.
   e-------------------------------------------------I
   B---3---3---3---3---3---3---3---3---3---3---------I
   G-2---2---2---2---2---2---2---2---2---2-----------I
   D-------------------------------------------------I
   A-------------------------------------------------I
   E-------------------------------------------------I
estate pila,en el cambio a LA7.
   e-000000000000000000000000-----------------------I
   B-222222222222222222222222-----------------------I
   G-222222222222000000000000-----------------------I
   D-222222222222222222222222-----------------------I
   A-000000000000000000000000-----------------------I
   E------------------------------------------------I


                                  CORO

   e------------------------------------0---2---0-------------I
   B----3---3---3---3---3-------3---3-------------------------I
   G--2---2---2---2---2-------2---2---2---2---2---------------I
   D----------------------------------------------------------I
   A----------------------------------------------------------I
   E----------------------------------------------------------I

   e--------------------------------0---2---------------------I
   B----3---3---3---3---3---3---3-----------------------------I
   G--2---2---2---2---2---2---2---2---2-----------------------I
   D----------------------------------------------------------I
   A----------------------------------------------------------I
   E----------------------------------------------------------I
                          ?BIS?

                            OUTRO
Después de que hagas el arpegio del coro haces este:

   e------------0-------------0-2------------I
   B----3---3---------3---3------------------I
   G--2---2---2-----2---2---2----------------I
   D-----------------------------------------I
   A-----------------------------------------I
   E-----------------------------------------I

                   REPETIR POR 6 VECES.
Mientras la guitarra 2 hace el arpegeo del OUTRO, la guitarra 5
hace este:


   e----------------12--------------------12-14-------I
   B----15----15--------------15----15----------------I
   G-14----14----14--------14----14----14-------------I
   D--------------------------------------------------I
   A--------------------------------------------------I
   E--------------------------------------------------I
                       REPETIR POR 6 VECES.

                        TERCERA GUITARRA



DESPUES DEL INTERMEDIODESPUES DE LO ACORDES









   e--333+---333*---333+-----------------I
   B--333+---333*---333+-----------------I
   G--444+---444*---444+-----------------I
   D--555+---555*---555+-----------------I
   A--555+---555*---555+-----------------I
   E--333+---333*---333+-----------------I


   e--333*---222*---333*---222*----3*---222*-----------I
   B--333*---333*---333*---333*----3*---333*-----------I
   G--444*---222*---444*---222*----4*---222*-----------I
   D--555*---000*---555*---000*----5*---000*-----------I
   A--555*----------555*-----------5*------------------I
   E--333*----------333*-----------3*------------------I

  Esta pendiente en el cambio a LA7


  e--555555555555555555555555-----------------------------I
  B--555555555555555555555555-----------------------------I
  G--666666666666666666666666-----------------------------I
  D--777777777777555555555555-----------------------------I
  A--777777777777777777777777-----------------------------I
  E--555555555555555555555555-----------------------------I

En el intermedio hay un piano que hace esto:

   e--14-----12-------------------------------I
   B-----15------12---------------------------I
   G---------------------15--14---------------I
   D-----------------------------14-----------I
   A------------------------------------------I
   E------------------------------------------I

Si quieres un sonido mas grave haces esto:

   e--2----0-------------------------------I
   B----3-----0------3--2------------------I
   G-----------------------2---------------I
   D---------------------------------------I
   A---------------------------------------I
   E---------------------------------------I

Fuente: tusacordes.com