a b c d e f g h i j k l m n o p q r s t u v w x y z 0-9

No Ha Parado De Llover

Mana

			
Intro:

e |--------------------------------0---2---0-|
B |---3---3---3---3---3----3---3-------------|
G |-2---2---2---2---2----2---2---2---2---2---|
D |------------------------------------------|
A |------------------------------------------|
E |------------------------------------------|

  |---2---2---2---2---2----3---3---0---5-----|
  |-3---3---3---3---3----3---3---3---3-------|
  |------------------------------------------|  se repite
  |------------------------------------------|  dos veces
  |------------------------------------------|  
  |------------------------------------------|


Verse

...te perdi...
             |------------------------
             |------------------------
             |------------------------   FIG. 1
             |----------------2---4---
             |----2---4---5-----------
             |-5----------------------

...muy mojada...
             |------------------------
             |------------------------
             |------------------------   FIG. 2
             |-2---4---2--------------
             |-------------5---2---5--
             |------------------------

...esta nublada... se repite FIG. 2

...no ha parado de llover...
             |------------------------------------------
             |---3---3---3---3---3----3---3---3---3---3-
             |-2---2---2---2---2----2---2---2---2---2---
             |------------------------------------------
             |------------------------------------------
             |------------------------------------------

...y sin ti...  se repite FIG. 1

...perro herido...  se repite FIG. 2

...sin su nido...  FIG. 2

...arena sin su mar...
            |--------------------------------0---2---0-
            |---3---3---3---3---3----3---3-------------
            |-2---2---2---2---2----2---2---2---2---2---
            |------------------------------------------
            |------------------------------------------
            |------------------------------------------
                                                 FIG. 3

...corazon...
            |---3---3---0---5---
            |-3---3---3---3-----
            |-------------------  FIG. 4
            |-------------------
            |-------------------
            |-------------------

...puedes pararla...  se toca el Intro 2 veces

...te comprendo... FIG. 1

...te di todo...  FIG. 2

...que falto...  FIG.1

...que paso...  FIG. 2

... estoy muriendo...  FIG. 3

...corazon...  FIG. 4

...puedes pararla...  se toca el Intro 2 veces


despues de eso viene el SOLO que se tocan con estos acordes
G-Bm-G-Bm-G-Bm-G-Bm-G-Bm-G

despues del SOLO se toca otra vez el Intro 2 veces

despues de eso se toca esta parte que dura hasta que se acaba la cancion.  se toca mas o menos como una seiz veces.

  |-----------0---3-|-----------0---5-
  |---3---3---------|---3---3---------
  |-2---2---2---2---|-2---2---2---2---
  |-----------------|-----------------
  |-----------------|-----------------
  |-----------------|----------------- ..........

Bueno asi mas o menos va el TAB.  tienen que seguir la letra de la cancion.  Ojala le entiendan.  Que la disfruten.

Fuente original ATAME [www.atame.org]
Colaborador original: Francisco Sanchez [Super99man@aol.com]

Fuente: tusacordes.com