a b c d e f g h i j k l m n o p q r s t u v w x y z 0-9

No Ha Parado De Llover

Mana

			
Saludos desde Nogales Sonora México
Auch les van 3 formas de tocar este intro

INTRO1:
E--------------------------------------0----2----0---2--3-
B----3----3----3----3----3------3-------------------------
G---2----2----2----2----2------2----2-----2----2----------
D---------------------------------------------------------
A---------------------------------------------------------
E---------------------------------------------------------

E----2----2----3----3----------2----2----0----0---5---2---
B---3----3----3----3---------3----3----3----3-------------
G---------------------------------------------------------
D---------------------------------------------------------
A---------------------------------------------------------
E---------------------------------------------------------

INTRO2:
E-------------------------------------------0----0---2--3-
B----3----3----3----3----3------3-----3-------------------
G---2----2----2----2----2------2----2-----2----2----------
D---------------------------------------------------------
A---------------------------------------------------------
E---------------------------------------------------------

E----2----2----3----3---3--3-----2----2----0----0---5---2-
B---3----3----3----3-----------3----3----3----3-----------
G---------------------------------------------------------
D---------------------------------------------------------
A---------------------------------------------------------
E---------------------------------------------------------

INTRO3:
E---0----0----0-----0-----0-------0-----2----4----2---4--5
B-0----0----0----0-----0-------0-----0----0----0----------
G---------------------------------------------------------
D---------------------------------------------------------
A---------------------------------------------------------
E---------------------------------------------------------

E----4-----4-----5-----5-------4-----4-----2-----2---7--4-
B-5-----5-----5-----5-------5-----5-----5-----5-----------
G---------------------------------------------------------
D---------------------------------------------------------
A---------------------------------------------------------
E---------------------------------------------------------

Fuente original ATAME [www.atame.org]
Colaborador original: Jesualdo Hermesdorf Fregoso [jesualdo9815@latinmail.com]

Fuente: tusacordes.com