a b c d e f g h i j k l m n o p q r s t u v w x y z 0-9

Mis Ojos

Mana

			
El ligado va como " * " y el slide " /sl "
     
       INTRO
     3 veces                                           1 vez
E------------------------------------/----------------------------------------------
B-------5-----------5--5*6--5-----/----5--------5--5*6--5---------------------------
G-----5--5--------7-------------5--/---5--5-----7------------5----------------------
D---5-----5----5-----------------5/--7------7--7------------------------------------
A-----------------------------------/-----------------------------------------------
E------------------------------------/----------------------------------------------

       GRACIAS AL CIELO...
   RIFF .1                                       SOLO :
E-------------------------------|---------------------------------------------------
B-------------------------------|---------------------------------------------------
G-------------------------------|---------------------------------------------------
D------------5--7*5-----------|-------------5--7*5-----------------------------5^~--
A--5--5*7-----------7--5--3-|-----5--5*7---------7--5--3-X--5*3---5/sl 7------------
E--------------------------------|--------------------------------------------------


E-----------------------------------------------------------------------------------
B---------------------------------------------------------------------------10*8----
G----------------------------------5--7/sl 9--7--5*7*5--7/sl 9--9^9-----------------
D--------------------------------5--------------------------------------------------
A-7/sl 3~~--3-3-5*3-5/sl 7----------------------------------------------------------
E-----------------------------------------------------------------------------------



E------------------------------------------------------------------------------------
B------------------------1---------1-3/sl 5-3----0*1---3---3/sl 5--1~~---------------
G-9-7*9*7---------------0-0*2--------------0-------0---0---------------2*0-----------
D------------10*8-----------------------------------------------------------2*0------
A-------------------10----------------------------------------------------------2/sl3
E------------------------------------------------------------------------------------

ESTE ES UNO DE MIS SOLOS FAVORITOS NO ESTA MUY DIFICIL PERO SE OYE  JEFA 
CON UNA DISTORCION MUY LIGERA , WOW.

Fuente original ATAME [www.atame.org]
Colaborador original: David A.Garcia. [D197@HOTMAIL.COM]

Fuente: tusacordes.com