a b c d e f g h i j k l m n o p q r s t u v w x y z 0-9

Me Vale

Mana

			
Bueno, esta cancion es lo MAS facil que existe, toda la cancion se va casi igual, hay les va:

G---------------------------------------------------------
D------------------------------9------------4-------------
A--------4----------4----7-7-7---7--5-5-5-5---5-----------
E--5-5-5---5--5-5-5---5-----------------------------------


en el coro se toca asi

G---------------------------------------------------------
D---------------------------------------------------------
A------------------------------------------------------5-5
E--5-5-5-5-5-5-5-5-5-5-5-5-5-5-5-5-5-0-0-0-0-0-0-0-0-0----

G---------------------------------------------------------
D---------------------------------------------------------
A-5-5-5-5-5-5-5-------------------------------------------
E---------------------------------------------------------

la cancion tiene partes en donde se toca asi, no solo en los coros, 
pero ahi oiganla y decidan uds como suena mejor.

hay un como puentecito por ahi, que empieza

mientras los reprimido, ah hay tan aburrido...... y ahi se toca esto

G----------------------------------------------------------
D----------------------------------------------------------
A--7-7-7-7-7-7-7-7--9-9-9-9-9-9-9-9--5-5-5-5-5-5-5-5-------
E----------------------------------------------------5-5-5-

G----------------------------------------------------------
D----------------------------------------------------------
A-----------7-7-7-7-7-7-7-7--9-9-9-9-9-9-9-9-12-12-12-12-12
E-5-5-5-5-5------------------------------------------------

G------------------------
D------------------------
A-12-12--7-7-7-7-7-7-7-7-
E------------------------

y despues de esto sigue de la otra forma y despues ya se sigue 
con los tabs con que empieza la cancion, y acaba con este finalito

G---------------------------------------------------------
D---------------------------------------------------------
A--5-5-5-5-7-7-7------------------------------------------
E----------------4s5--------------------------------------

Fuente original ATAME [www.atame.org]
Colaborador original: Jose Labbe [joselabbe@hotmail.com]

Fuente: tusacordes.com