a b c d e f g h i j k l m n o p q r s t u v w x y z 0-9

Mariposa Traicionera

Mana

Em
D
C
G
E
A
			
INTRO:
    Em           D       C       G 
e|---------------7-7-7----7---5--------------|
B|--8--8--8--8---8-8-8-8--8-8-7-7--7-7-7-7-7-|
G|--9--9--9--9---------9----9---7--7-7-7-7-7-|
D|-------------------------------------------|
A|-------------------------------------------|
E|-------------------------------------------|

e|--5-5-5-----5----3----------------|
B|--7-7-7--7--7-7--5-5--------------|
G|---------7----7----5--------------|
D|----------------------------------|
A|----------------------------------|
E|----------------------------------|

e|---3-3-3-2-0---------------|
B|--5-5-5-3-1----3-----------|
G|--------------4-3----------|
D|---------------------------|
A|---------------------------|
E|---------------------------|
	

RIFF 1:
e|---------------|
B|---------------|
G|---------------|
D|--3/5-4-2-0-1--|
A|---------------|
E|---------------|

Em                   D
  Eres como una mariposa

                                    C
  vuelas y te posas vas de boca en boca

                                G 
  fácil y ligera de quien te provoca

RIFF 1:
e|---------------|
B|---------------|
G|---------------|
D|--3/5-4-2-0-1--|
A|---------------|
E|---------------|



Em                      D
 Yo soy ratón de tu ratonera

                             C
 trampa que no mata pero no libera

                    G 
 vivo muriendo prisionero


C   D         G 
 Mariposa traicionera

            Em
[todo se lo lleva el viento]

C    D        Si7
 mariposa no regreso


E                            
 Ay mariposa de amor, mi mariposa de amor

                  Si7
 ya no regreso contigo


Em                                  Si7
 Ay mariposa de amor, mi mariposa de amor

                   E 
 nunca jamás junto a ti


           Mi7
 Vuela amor, vuela dolor

                    A 
 y no regreses a un lado

                   E 
 ya vete de flor en flor

  Si7                E     
 seduciendo a los pistilos


A                 E 
 Y vuela cerca del Sol 

          Si7                 E 
pa que sientas lo que es dolor


INTRO
RIFF 1

Em                   D
Ay mujer cómo haces daño

                                   C
pasan los minutos cual si fueran años

                           G 
mira estos celos me están matando

RIFF 1:
e|---------------|
B|---------------|
G|---------------|
D|--3/5-4-2-0-1--|
A|---------------|
E|---------------|


Em                   D

Ay mujer que fácil eres


                               C
abres tus alitas muslos de colores

                       G 
donde se posan tus sabores


C   D         G 
 Mariposa traicionera

            Em
[todo se lo lleva el viento]

C    D        Si7
 mariposa no regreso


E                            
 Ay mariposa de amor, mi mariposa de amor

                  Si7
 ya no regreso contigo


Em                                  Si7
 Ay mariposa de amor, mi mariposa de amor

                   E 
 nunca jamás junto a ti




           Mi7

Vuela amor, vuela dolor

Mi7                      A 
que tengas suerte en tu vida

           Mi7        Si7
ay, ay, ay, ay, ay dolor

                    E 
yo te lloré todo un río


A              E 
ay, ay, ay, ay, ay amor


Si7                E 
tú te me vas a volar

    Em           D       C       G 
e|---------------7-7-7----7---5--------------|
B|--8--8--8--8---8-8-8-8--8-8-7-7--7-7-7-7-7-|
G|--9--9--9--9---------9----9---7--7-7-7-7-7-|
D|-------------------------------------------|
A|-------------------------------------------|
E|-------------------------------------------|

e|--5-5-5-----5----3----------------|
B|--7-7-7--7--7-7--5-5--------------|
G|---------7----7----5--------------|
D|----------------------------------|
A|----------------------------------|
E|----------------------------------|

e|---3-3-3-2-0---------------|
B|--5-5-5-3-1----3-----------|
G|--------------4-3----------|
D|---------------------------|
A|---------------------------|
E|---------------------------|
	

RIFF 1:
e|---------------|
B|---------------|
G|---------------|
D|--3/5-4-2-0-1--|
A|---------------|
E|---------------|

Fuente: Tusacordes