a b c d e f g h i j k l m n o p q r s t u v w x y z 0-9

Mariposa Traicionera

Mana

			
INTRO:
  Fm                           D#             

e|--------------8-8-8----8----6----|
B|--9--9--9--9--9-9-9-9--9-9--8-8--|
G|--10-10-10-10-------10---10---8--|
D|---------------------------------|
A|---------------------------------|
E|---------------------------------|
                         C#
e|----------6-6-6---6---4----|
B|--8-8-8-8-8-8-8-8-8-8-6-6--|
G|--8-8-8-8-------8---8---6--|
D|---------------------------|
A|---------------------------|
E|---------------------------|
                           G#
e|----------------------------|
B|-----9---9---9---9--8--6?-4-|
G|--/10--10--10--10--8--6--5--|
D|----------------------------|
A|----------------------------|
E|----------------------------|

e|---------------|
B|---------------|
G|---------------|
D|--5/6-5-3-1-3--|
A|---------------|
E|---------------|

Fm                D#                               C#
Eres como una mariposa vuelas y te posas vas de boca en boca

e|--8--8--8--8---6-6-6-6--------------------4-4-4-4-
B|--9--9--9--9---8-8-8-8--------------------6-6-6-6-
G|--10-10-10-10--8-8-8-8--------------------6-6-6-6-
D|--10-10-10-10--8-8-8-8--------------------6-6-6-6-
A|--------------------------------------------------
E|--------------------------------------------------
                                  
                              G#    Fm                    D#     
fácil y ligera de quien te provoca Yo soy ratón de tu ratonera

e|---------------------4-4-4-4-8----8--8--8---6-6-6-6--
B|---------------------4-4-4-4-9----9--9--9---8-8-8-8--
G|---------------------5-5-5-5-10---10-10-10--8-8-8-8--
D|---------------------6-6-6-6-10---10-10-10--8-8-8-8--
A|-----------------------------------------------------
E|-----------------------------------------------------

e|-6-8--6-------
B|-8-8-8--------
G|--------------
D|--------------
A|--------------
E|--------------
                             C#                    G#
trampa que no mata pero no libera vivo muriendo prisionero

e|---------------------4-4-4-4---------------4-4-4-4-
B|---------------------6-6-6-6---------------4-4-4-4-
G|---------------------6-6-6-6---------------5-5-5-5-
D|---------------------6-6-6-6---------------6-6-6-6-
A|---------------------------------------------------
E|---------------------------------------------------

C#   D#         G#
Mariposa traicionera
e|-------9-----9---11--11-----11---11--
B|-------9-----9---11--11---13---13----
G|-10-10--10-10--12--12---13---13------
D|-------------------------------------
A|-------------------------------------
E|-------------------------------------
           Fm
todo se lo lleva el viento
e|-----13---15-13----------------
B|---13---13-----13--------------
G|-13--------------13------------
D|-------------------------------
A|-------------------------------
E|-------------------------------
C#   D#        C
mariposa no regreso
e|-------9-----9---11--11---------------------
B|-------9-----9---11--11-5-6-8-8/10-8-6-10---
G|-10-10--10-10--12--12---5-7-8-8/10-8-7-10---
D|--------------------------------------------
A|--------------------------------------------
E|--------------------------------------------


F
Ay mariposa de amor, mi mariposa de amor
                 C
ya no regreso contigo
e|-------------
B|-8-8-8-6-8---
G|-------------
D|-------------
A|-------------
E|-------------

Gm
Ay mariposa de amor, mi mariposa de amor
e|----6--------------6--------
B|---8--------------8---------
G|--7-------------10----------
D|----------------------------
A|----------------------------
E|----------------------------
                   F
nunca jamás junto a ti
e|--8--10-8--10-8--10----------
B|--10-10-10-10-10-10----------
G|-----------------------------
D|-----------------------------
A|-----------------------------
E|-----------------------------

F
Vuela amor, vuela dolor

F7                  A#
y no regreses a un lado
e|--10-10-10-12-13--------
B|-----------13-15--------
G|------------------------
D|------------------------
A|------------------------
E|------------------------

                   F
ya vete de flor en flor
e|------------------
B|-10-10-10-11-13---
G|------------------
D|------------------
A|------------------
E|------------------

    C               F
seduciendo a los pistilos
e|--10-13-12-12-10-8------
B|--11-15-13-13-11-10-----
G|------------------------
D|------------------------
A|------------------------
E|------------------------
e|------------------------
B|-1-3-1------------------
G|-------3-2-0-2-3--------
D|------------------------
A|------------------------
E|------------------------

A#                F
Y vuela cerca del sol
          C                 F
pa que sientas lo que es dolor

solo:
e|------------------------
B|-10-10-10-11-13---------
G|-10-10-10-12-14---------
D|------------------------
A|------------------------
E|------------------------

e|------------------------------------
B|-----9-9--9--9--9--9--9--9------11--
G|-------10-12-10-12-10-12-10-10/8----
D|-8/10-------------------------------
A|------------------------------------
E|------------------------------------

e|-------------------------------------------
B|--8-9-8-9-8-9-8----6-6-8-6-8-9--8-6-4------
G|--8-8-8-8-8-8-8-8/6--6-6-6-6-10-8-6-5------
D|--------------------------------------5----
A|--------------------------------------6----
E|-------------------------------------------

e|-------------------------
B|-------------------------
G|-------5-6-5-5-----------
D|-5-6-8---------8-6-5-----
A|---------------------8---
E|-------------------------

Fm                    D#                                  C#
Ay mujer cómo haces daño pasan los minutos cual si fueran años

e|--8--8--8--8---6-6-6-6--------------------4-4-4-4-
B|--9--9--9--9---8-8-8-8--------------------6-6-6-6-
G|--10-10-10-10--8-8-8-8--------------------6-6-6-6-
D|--10-10-10-10--8-8-8-8--------------------6-6-6-6-
A|--------------------------------------------------
E|--------------------------------------------------
                    
                           G#
mira estos celos me están matando
e|---------------------4-4-4-4-
B|---------------------4-4-4-4-
G|---------------------5-5-5-5-
D|---------------------6-6-6-6-
A|-----------------------------
E|-----------------------------

e|-----8---6--4-4-4/3---------
B|-------------------6-4-6----
G|--6/8-5/6---5-5-------------
D|----------------------------
A|----------------------------
E|----------------------------

Fm                 D#                                 C#
Ay mujer que fácil eres abres tus alitas muslos de colores
e|--8--8--8--8---6-6-6-6--------------------4-4-4-4-
B|--9--9--9--9---8-8-8-8--------------------6-6-6-6-
G|--10-10-10-10--8-8-8-8--------------------6-6-6-6-
D|--10-10-10-10--8-8-8-8--------------------6-6-6-6-
A|--------------------------------------------------
E|--------------------------------------------------
 
                     G#
donde se posan tus sabores
e|---------------------4-4-4-4-|
B|---------------------4-4-4-4-|
G|---------------------5-5-5-5-|
D|---------------------6-6-6-6-|
A|-----------------------------|
E|-----------------------------|
C#   D#         G#
Mariposa traicionera
e|-------9-9--13-11-13-11-9--8------
B|----------------------------------
G|--8/10---10-13-12-13-12-10-8------
D|----------------------------------
A|----------------------------------
E|----------------------------------

e|-----13-15-16-15-13--------
B|---13--------------13------
G|---------------------------
D|---------------------------
A|---------------------------
E|---------------------------
            Fm
todo se lo lleva el viento

C#   D#        C
mariposa no regreso
e|-------9-----9---11--11---------------------
B|-------9-----9---11--11-5-6-8-8/10-8-6/10---
G|-10-10--10-10--12--12---5-7-8-8/10-8-7/10---
D|--------------------------------------------
A|--------------------------------------------
E|--------------------------------------------

F
Ay mariposa de amor, mi mariposa de amor
                 C
ya no regreso contigo
e|-------------
B|-8-8-8-6-8---
G|-------------
D|-------------
A|-------------
E|-------------

Gm
Ay mariposa de amor, mi mariposa de amor
e|----6--------------6--------
B|---8--------------8---------
G|--7-------------10----------
D|----------------------------
A|----------------------------
E|----------------------------
                   F
nunca jamás junto a ti
e|--8--10-8--10-8--10----------
B|--10-10-10-10-10-10----------
G|-----------------------------
D|-----------------------------
A|-----------------------------
E|-----------------------------

F
Vuela amor, vuela dolor
F7                      A#
que tengas suerte en tu vida
e|-----0-0-1-1-3-3-5-5-6-6-8-8-
B|--3-3------------------------
G|-----------------------------
D|-----------------------------
A|-----------------------------
E|-----------------------------

Esta para es rapida
e|----10--10--10--10--10--10--10--10-
B|--11--11--11--11--11--11--11--11---
G|-----------------------------------
D|-----------------------------------
A|-----------------------------------
E|-----------------------------

e|---8--8--8--8--8--8--8----
B|-10-10-10-10-10-10-10-------
G|-----------------------------
D|-----------------------------
A|-----------------------------
E|-----------------------------

e|-----------------------------
B|-1-3-1-----------------------
G|-------3-2-0-2-3-------------
D|-----------------------------
A|-----------------------------
E|-----------------------------

                F
ay, ay, ay, ay, ay dolor
C                   F
yo te lloré todo un río

A#              F
ay, ay, ay, ay, ay amor
C                F
tú te me vas a volar

e|------------------------
B|-10-10-10-11-13---------
G|-10-10-10-12-14---------
D|------------------------
A|------------------------
E|------------------------

 Fm                              D#
e|-------------------8-8-8----8----6---
B|-----9--9--9--9--9-9-9-9-9--9-9--8-8-
G|--------10-10-10-10------10---10---8-
D|-8/10--------------------------------
A|-------------------------------------
E|-------------------------------------
                         C#-
e|----------6-6-6---6---4----
B|--8-8-8-8-8-8-8-8-8-8-6-6--
G|--8-8-8-8-------8---8---6--
D|---------------------------
A|---------------------------
E|---------------------------
                           G#
e|----------------------------
B|-----9---9---9---9--8--6?-4-
G|--/10--10--10--10--8--6--5--
D|----------------------------
A|----------------------------
E|----------------------------

e|------------------------
B|------------------------
G|-------5-6-5------------
D|-5-6-8------6-5---------
A|----------------8-6-8---
E|------------------------

En los conciertos le agrega esto rasgueando
e|-3-3-3-4-----
B|-4-4-4-4-----
G|-3-3-3-3-----
D|-------------
A|-------------
E|-------------

O esto 
e|--3-4--
B|---4---
G|-------
D|-------
A|-------
E|-------

Fuente: Tusacordes