a b c d e f g h i j k l m n o p q r s t u v w x y z 0-9

Mariposa Traicionera

Mana

			
Esta canción va con capo en el traste 5.
Espero sea de su agrado...

Intro

Fm - D# - C# - G# - Fm

|-------------8-8-8----8----6--------------6-6-6---6--------|
|--9--9--9--9-9-9-9--9-9--9-8-8--8-8-8-8-8-8-8-8-8-8-8?9--6-|
|-10-10-10-10-------10---10---8--8-8-8-8-8-------8---8-10-6-|
|-----------------------------------------------------------|
|-----------------------------------------------------------|
|-----------------------------------------------------------|
                                            
|---------------------------------------------------------|
|-----9----9----9----9----9---9-----6---------------------|
|-/10---10---10---10---10--10---10----6-6/8-0-------------|
|----------------------------------------------6-0--------|
|--------------------------------------------------8-6-8--|
|---------------------------------------------------------|

      * 
|-------------|
|-------------|
|-------------|
|---6-0-------|
|-------8-6-8-|
|-------------|


Fm                  D#
Eres como una mariposa
                                   C#
Vuelas y te posas vas de boca en boca
                               G#
Fácil y ligera de quien te provoca *

Yo soy ratón de tu ratonera
Trampa que no mata pero no libera
Vivo muriendo prisionero

|----------------|
|----------------|
|----------------|
|-0-1-0-1-0------|
|------------8-6-|
|----------------|

Pre Coro

|-------9-------9-------11-------11-------11----11----13---13-|
|-------9-------9-------11-------11----13----13----13---13----|
|-10-10---10-10---12-12----12-12----13----13----13---13-------|
|-------------------------------------------------------------|
|-------------------------------------------------------------|
|-------------------------------------------------------------|


|-------9-------9--------11-------11-|
|-------9-------9--------11-------11-|
|-10-10---10-10----12-12----12-12----|
|------------------------------------|
|------------------------------------|
|------------------------------------|

C#   D#           G#
Mariposa traicionera

            Fm
todo se lo lleva el viento

C#   D#         C
mariposa no regreso

|---------------------|
|-0-6-8-8/10-8-6-8/10-|
|---------------------|
|-0-7-8-8/10-8-7-8/10-|
|---------------------|
|---------------------|

Coro

F       
Ay mariposa de amor, mi mariposa de amor
                 C
ya no regreso contigo

Fig. 1
|------------6--6--|
|-8-8-8-6-8--8--0--|
|------------7--7--|
|-8-8-8-6-8--------|
|------------------|
|------------------|

Gm               C     
ay mariposa de amor, mi mariposa de amor
                    F
nunca jamás junto a ti

Fig. 2
|--8-10--8-10--8--10-10--8-|
|-10-10-10-10-10--10-10-10-|
|--------------------------|
|--------------------------|
|--------------------------|
|--------------------------|




F                      F7
vuela amor, vuela dolor
                    A#
y no regreses a un lado


|-10-10-10--12-12/13-|
|-11-11-11--13-13/15-|
|--------------------|
|--------------------|
|--------------------|
|--------------------|

A#                  F
ya vete de flor en flor

|-0-0-6--8-10-13-12-12-|
|-6-6-8-10-11-15-13-13-|
|----------------------|
|----------------------|
|----------------------|
|----------------------|

     C               F
seduciendo, a los pistilos

Fig. 3
|---------------------|
|---------------------|
|---7-0---------------|
|-7-----9-7-0--7-7/8--|
|---------------------|
|---------------------|

A#                F
y vuela cerca del sol
        C                    F
pa que sientas lo que es dolor


|-0-0-0-6-8-|
|-----------|
|-0-0-0-7-9-|
|-----------|
|-----------|
|-----------|



Solo 

F#m - D# - C# - G# - * Fm
 
|-------------------6----------------------------------------|
|---9-6-8-6-8-6-------8-9-8-9-8-9-8---6--6-8-6-8--9-8-6------|
|-0-0-0-0-0-0-0-6/8----------------------------8-10-8-6--8-0-|
|---------------------8-8-8-8-8-8-8-6----6-6-6----------10-6-|
|------------------------------------------------------------|
|------------------------------------------------------------|
                
|----------------------|
|---6-8-9-6------------|
|-8-----5----6-0-------|
|-0-6-8---6------8-6-8-|
|----------------------|
|----------------------|

Versos 2° parte

Ay mujer cómo haces daño
Pasan los minutos cual si fueran años
Mira estos celos me están matando 

|---------------------------------|
|-------13----11------------------|
|---------------------------------|
|-11/13----11-----6-0-------------|
|---------------------8-6-8-------|
|---------------------------------|

Ay mujer qué fácil eres
Abre tus alitas muslos de colores
Donde se posan tus amores


Pre Coro 2
                                      
|-----8------11-----11------13---13----9-------9------11------11
|------------------------13---13-------9-------9------11------11
|8/10--10/12--12/13---13---13-----10-10---10-10---12-12---12-12-
|---------------------------------------------------------------
|---------------------------------------------------------------
|---------------------------------------------------------------

Mariposa traicionera
Todo se lo lleva el viento
Mariposa no regreso

|---0-6-8-10-12-12/13-|
|-8-------------------|
|---0-7-9-10-12-12/14-|
|-8-------------------|
|---------------------|
|---------------------|


Coro 2

Ay mariposa de amor, mi mariposa de amor
Ya no regreso contigo Fig. 1
Ay mariposa de amor mi mariposa de amor
Nunca jamás junto a ti Fig. 2
Vuela amor, vuela dolor
Que tengas suerte en tu vida

|-------------------------------------|
|---------------8-8-10-10-11-11-13-13-|
|-7-7-9-9-10-10-----------------------|
|-------------------------------------|
|-------------------------------------|
|-------------------------------------|

- los siguiente va requinteado rápido, sólo en las 2 cuerdas - 

|-13--12-10--8-|         
|-15--13-11-10-|         
|x-------------|  ay ay ay ay ay dolor
|x-------------|         
|x-------------|         
|x-------------|      

Yo te lloré todo un río Fig. 3
Ayayayayay amor
Tú te me vas a volar

|-0-0-0-6-8---------|
|-----------------9-|
|-0-0-0-7-9---------|
|-------------8/10--|
|-------------------|
|-------------------|



|-------------8-8-8----8----6--------------6-6-6---6--------|
|--9--9--9--9-9-9-9--9-9--9-8-8--8-8-8-8-8-8-8-8-8-8-8?9--6-|
|-10-10-10-10-------10---10---8--8-8-8-8-8-------8---8-10-6-|
|-----------------------------------------------------------|
|-----------------------------------------------------------|
|-----------------------------------------------------------|
                                            
|-----------------------------------------------------------|
|-----9----9----9----9----9---9------6----------------------|
|-/10---10---10---10---10--10---10-----6-6/8-0--------------|
|------------------------------------------------6-0--------|
|----------------------------------------------------8-6-8--|
|-----------------------------------------------------------|


Fuente: tusacordes.com