a b c d e f g h i j k l m n o p q r s t u v w x y z 0-9

Mariposa Traicionera

Mana

			
INTRO

e|--------------8-8-8------8--------------------|
B|--9--9--9--9--9-9-9--9---9--9---11---8~-------|
G|--10-10-10-10--------10-----10--12---8~-------|
D|----------------------------------------------|
A|----------------------------------------------|
E|----------------------------------------------|

e|----------6-6-6-----6---------------------------------------------------------|
B|-8-8-8-8--8-8-8--8--8--8---9-----6~--------9-9-9----9---8---6-----------------|
G|-8-8-8-8---------8-----8---10----6~---5/8---8-8---8---8---8-----5--5/8---5~---|
D|------------------------------------------------------------------------------|
A|------------------------------------------------------------------------------|
E|------------------------------------------------------------------------------|

CORO
Eres como una mariposa.....
   Fm    D#    C#     G#
e|-8-----6-----4------4-----------|
B|-9-----8-----6------4-----------|
G|-10----8-----6------5-----------|
D|-10----8-----6------6-----------|
A|-8-----6-----4------6-----------|
E|-x-----x-----x------4-----------|

SOLO

e|-5-5-5---6--8---------------------------------------------6~--------|
B|-6-6-6---6--8-----------------9---8--6--8--6--8--6------------------|
G|------------------[Start]---6---6--------------------3/6------------|
D|--------------------------------------------------------------------|
A|--------------------------------------------------------------------|
E|--------------------------------------------------------------------|

e|--3-4-3-4-3-4-3-----------------------------------------|
B|-----------------------6~--6--8--6--8--9-8--------------|
G|------------------3/6-----------------------5--5/8--5---|
D|--------------------------------------------------------|
A|--------------------------------------------------------|
E|--------------------------------------------------------|

e|-------------8--------------------------------|
B|--------8-9--9--9-8-9-8-----------------------|
G|-8--10-------------------10--8--8h10~---------|
D|----------------------------------------------|
A|----------------------------------------------|
E|----------------------------------------------|


 

Fuente: tusacordes.com