a b c d e f g h i j k l m n o p q r s t u v w x y z 0-9

Mariposa Traicionera

Mana

			
Este es el tab completo de la rola dedicada a las mujeres infieles,
tienes mas riffs que los anteriores y el solo pienso que suena mejor,
no inclui los acordes, pues ya estan muy repetidos. A tocar:


*Intro:

1. -4-4-4-4-8-8-8-4-8-4-6-3-|-3-3-3-3-6-6-6-3-6-3-4-1-|
2. -6-6-6-6-9-9-9-6-9-6-8-4-|-4-4-4-4-8-8-5-4-8-4-6-2-|
3. -------------------------|-------------------------|
4. -------------------------|-------------------------|
5. -------------------------|-------------------------|
6. -------------------------|-------------------------|
                                  *riff princ.
1. -----4---4---4---3---1--------|------------|
2. –2/6---6---6---4---2---1-4-1--|------------|
3. ---------------------------1--|-1-0--------|
4. ------------------------------|-----3-1-3--|
5. ------------------------------|------------|
6. ------------------------------|------------|


Eres como una mariposa,
vuelas y te posas,
vas de boca en boca,
facil y ligera de quien te provoca.riff princ.

Yo soy raton de tu ratonera, riff 1
trampa que no mata
pero no libera,
vivo muriendo prisionero.

Mariposa traicionera, riff 2
todo se lo lleva el viento,
mariposa no regreso. riff 3

CORO:

Ay mariposa de amor,
mi mariposa de amor,
ya no regreso contigo, riff 4
ay mariposa de amor, riff 5
mi mariposa de amor,
nunca jamas junto a ti, riff 6
vuela amor, vuela dolor,
y no regreses a un lado, riff 7
ya vete de flor en flor, riff 8
seduciendo a los pistilos, riff 9
y vuela cerca del sol,
pa’ que sientas lo que es dolor.


*Solo:

1. -5-5-5-6-8-|---4--4-3-4-3-3-1-----4-3-4-3-4-3-4-3---1--|
2. -6-6-6-8-9-|-1----6-4-6-4-4-2—1/4---4-6-4-6-4-6-4-2----|
3. -----------|-------------------------------------------|
4. -----------|-------------------------------------------|
5. -----------|-------------------------------------------|
6. -----------|-------------------------------------------|

1. -1-3-1-3-4-3-1-----|-1-3-4-4-6-8----------|
2. -2-4-2-4-6-4-2-3-0-|-2-4-6-6-8-9----------|
3. ---------------4-0-|-------------3-0--------|
4. -------------------|-----------------3-1-3--|
5. -------------------|------------------------|
6. -------------------|------------------------|


Ay mujer como haces daño,
pasan los minutos cual si fueran años,
mira estos celos me estan matando. (riff 10- riff princ.)
Ay mujer que facil eres,
abres tus alitas, muslos de colores,
donde se posan tus amores. riff 11
Mariposa traicionera,
todo se lo lleva el viento, riff 12
mariposa no regreso. riff 13

-Mismos arreglos:

Ay mariposa de amor,
mi mariposa de amor,
ya no regreso contigo,
ay mariposa de amor,
mi mariposa de amor,
nunca jamas junto a ti,
vuela amor, vuela dolor,
que tengas suerte en tu vida, riff 14
ay ay ay ay ay dolor,
yo te llore todo un rio,
ay ay ay ay ay amor,
tu te me vas a volar.

*Outro:

1. -5-5-5-6-8—-|
2. -6-6-6-8-9--|
3. ------------|
4. ------------|
5. ------------|
6. ------------|

1. -4-4-4-4-8-8-8-4-8-4-6-3-|-3-3-3-3-6-6-6-3-6-3-4-1-|
2. -6-6-6-6-9-9-9-6-9-6-8-4-|-4-4-4-4-8-8-5-4-8-4-6-2-|
3. -------------------------|-------------------------|
4. -------------------------|-------------------------|
5. -------------------------|-------------------------|
6. -------------------------|-------------------------|

1. -----4---4---4---3---1-------------3-4-6-4-|------------|
2. –2/6---6---6---4---2---1-4-1---4-6---------|------------|
3. -------------------------------------------|-1-0--------|
4. -------------------------------------------|-----3-1-3--|
5. -------------------------------------------|------------|
6. -------------------------------------------|------------|


_______________________________________________________________________________________

   riff 1:  riff 2:                            riff 3:          riff 4:     riff 5:
1. -6-8-6-|-8-11-8--8-11-8--8-11-13-8-11-13-8-|-3-5-6/8-6-5--8-|---3-------|-----5--|
2. -------|-----------------------------------|-5-6—8/9-8-6-9--|-5---5-3-5-|-3/6----|
3. -------|-----------------------------------|----------------|-----------|--------|
4. -------|-----------------------------------|----------------|-----------|--------|
5. -------|-----------------------------------|----------------|-----------|--------|
6. -------|-----------------------------------|----------------|-----------|--------|

   riff 6:       riff 7:               riff 8:              riff 9:
1. -5--9-5--9-5-|-8-8-8-8h10-12-12/13-|-5-5-5h6-8-10-13-12-|---------------|
2. -6-10-6-10-6-|---------------------|-----------11-15-13-|---3-1---------|
3. -------------|---------------------|--------------------|-3-----3-0---2-|
4. -------------|---------------------|--------------------|-----------2---|
5. -------------|---------------------|--------------------|---------------|
6. -------------|---------------------|--------------------|---------------|

   riff 10:       riff 11:                riff 12:      riff 13:
1. ----8---6---4-|-----6/8----6/7----4/6-|-3-6-3-------|-3-4-6--8-10-12--|
2. -/6---4---2---|--/6-----/5-----/4-----|-4-8-4-6-6-6-|-4-6-8-10-12-13--|
3. --------------|-----------------------|-------------|-----------------|
4. --------------|-----------------------|-------------|-----------------|
5. --------------|-----------------------|-------------|-----------------|
6. --------------|-----------------------|-------------|-----------------|

   riff 14:
1. -1-1-3-3-5-5-6-6-8-8-8-13131313131313131313--|
2. ---------------------------------------------|
3. ---------------------------------------------|
4. ---------------------------------------------|
5. ---------------------------------------------|
6. ---------------------------------------------|



Este va dedicado para un amigo que se llama Daniel Ramirez, quien fue el
que me dijo que lo sacara, pero no solo eso, el me ha apoyado mucho
con lo de la guitarra. Dudas o comentarios, a mi mail. Suerte!!!

Fuente original ATAME [www.atame.org]
Colaborador original: German Ahumada [gere_walsh@hotmail.com]

Fuente: tusacordes.com