a b c d e f g h i j k l m n o p q r s t u v w x y z 0-9

Mariposa Traicionera

Mana

			
Aquí esta el esperado bajo de la mejor canción del disco de  “Revolución del amor”,
que por cierto es uno de los mejores bajos de esta excelente banda, bueno ahí les va,
 Saludos desde Trujillo, Venezuela.
Intro- Verso
      Fm  			        D# 	
G---------------|----------------|-----0-------|--------0---3--------------
D---------------|----------------|---1----1--1-|-----1------------------
A---------------|-------------3--|-------------|-------------------------
E--1--4--1--1---|-----1--4-------|-------------|-------------------------
      C#			          G#	
G---------------|--------------|-------------|-------------------------
D----3----------|-----3----6---|-------------|--------------------------
A-4----4--4-----|--4-----------|-----3-------|--------3---6--------------
E---------------|--------------|--4----4--4--|-----4------------------

Pre-coro
     C#                   D#                 G#           Fm
G----------------|----0-----------|-------------|-----------|---------------
D----3-----------|--1----1--1-----|-------------|-----------|---------------
A-4----4--4------|----------------|-----3-------|-----------|----------3---
E----------------|----------------|--4----4--4--|-1-4-1-1---|-----1-4------
      C#                   D#                 C
G----------------|-----0--------|--------------|
D----3-----------|-1------1--1--|-----2--------|
A-4----4--4------|--------------|--3---3-3-----|
E----------------|--------------|--------------|

Coro
         F                                           C  
G---------------|----------------|------------|--------------|----------------|------------|
D---------------|----------------|------------|-----2--------|-----2----------|-------2--5|
A------0--------|-----0----------|------0--3--|--3-----3--3--|--3------3--3---|----3------|
E--1------1--1--|-1------1--1----|----1-------|--------------|----------------|------------|
         F                                                       Bb 
G---------------|----------------|------------|---------------|----------------|------------|
D---------------|----------------|------------|------0--------|-----0----------|------0--3-|
A------0--------|-----0----------|------0--3--|--1------1--1--|-1------1--1----|----1-------|
E--1------1--1--|-1------1--1----|----1-------|---------------|----------------|------------|
         F                      C               F              Bb               F                  C     F
G---------------|----------------|-----------|-----------|---------------|----------------|-----------
D---------------|------2---------|-----------|----0------|---------------|------2---------|-----------
A------0--------|--3-----3--3----|----0------|-1----1--1-|------0--------|--3-----3--3----|----0------
E--1------1--1--|----------------|-1----1--1-|-----------|--1------1--1--|----------------|-1----1--1

Luego viene el solo que se hace con el intro, luego verso, el precoro y el coro
Cualquier duda o comentario escríbanme a san_roberth@hotmail.com

Fuente original ATAME [www.atame.org]
Colaborador original: roberth [san_roberth@hotmail.com]

Fuente: tusacordes.com