a b c d e f g h i j k l m n o p q r s t u v w x y z 0-9

Mariposa Traicionera

Mana

			
intro
1------------------8--8--8------8--------------
3--9---9---9---9---9--9--9--9---9--9---11--8
3--10--10--10--10-----------10-----10--12--8---
4-----------------------------------------------
5-----------------------------------------------
6-----------------------------------------------

1-----------6--6--6------6-------------
28-8-8-8----8--8--8---8--8--8--9---6---
38-8-8-8--------------8-----8--10--6---
4--------------------------------------
5--------------------------------------
6--------------------------------------

1--------4----4---4--------------------------------*
2---2/6-----6---6--------9---8----6----------------*
3---------------------8----8---8-------5--5/8---5--*
4--------------------------------------------------*
5--------------------------------------------------*
6--------------------------------------------------*

1----------------------------------
2----------------------------------
3----------------------------------
4---5h6---5------------------------
5-------------8-----6------6/8-----
6----------------------------------


solo

1--5--5--5-----6--8------------------------------------6-
2--6--6--6-----6--8-------9---8--6--8--6--8--6-----------
3-----------------------6---6--------------------3/6-----
4--------------------------------------------------------
5--------------------------------------------------------
6--------------------------------------------------------

1--3-4-3-4-3-4-3------------------------------------------
2-----------------------6---6--8--6--8--9--8--------------
3-----------------3/6--------------------------5--5/8--5--
4---------------------------------------------------------
5---------------------------------------------------------
6---------------------------------------------------------

1------------------8-----------------------------
2----------8---9---9---9--8--9--8----------------
3--8--10----------------------------10--8--8h10--
4------------------------------------------------
5------------------------------------------------
6------------------------------------------------

finse toca el intro hsta la parte de los asteriscos y por
utimo se toca esta parte
1-------------------9----------------------------
2-------------8--9--8--9--8--9--8----------------
3--8--10---------------------------10--8--8h10---
4------------------------------------------------
5------------------------------------------------
6------------------------------------------------

puedes usar este final o este
1------------------------------
2-------------------------------
3-------------------------------
4---5h6---5---------------------
5--------------8----6----6/8----
6-------------------------------

HOLA A TODA AL BANDA ESPERO K LES LATA ESTA ROLA TANTO COMO 
A MI ES LA MAAS  PERRON ADEL DISCO..MAS K NADA POR LA LETRA..
SI TIENEN DUDAS ECHENME UN MAIL..
ESPECIALEMENTE A 2° DE SECUNDARIA   ...A MEME Y HESLY...
K NO LES LATE ESTA ROLA..Y AUN CHAVA MUY ESPECIAL..A LA K 
KIERO Y AMO OCN TODO MI CORAZON NO LE DEDICO LA LETRA POR K 
ELLA NO ES ASI...PERO SI AL PARTE DE AL LIRA..K LA SAKE 
PENSANDO EN ELLA
ESPERO K ALGUN DIA PUEDAS ENTNDER5 K TE AMO Y LAS COSAS K TE
HE DICHO SON VERDAD

Fuente original ATAME [www.atame.org]
Colaborador original: sergio santana [serfiorosso@hotmail.com]

Fuente: tusacordes.com