a b c d e f g h i j k l m n o p q r s t u v w x y z 0-9

Manda Una Señal

Mana

C
G
Am
Dm
Em
F
Cm
			
INTRO: C  G  Am  G


   C
Te quiero si te quiero
   G                           Am       G
Voy andando como fiera tras tus pies amor
   C                   G
Te veo y te deseo pero tu
                                 Am  G
Tienes tu dueño y no te puedes safar
 


    Am      G        C
Los días se pasan sin ti
     Am      G        C
Las noches se alargan sin ti
     Dm              G
Sin tu amor, sin tus besos...



  C                Am                     Em       G
Ay si tuvieras libertad a tu lado yo estaría amor
  C                Am                     Em       G
Hey dame dame una señal cuando seas libre mi amor
F                  C   G                Am
Hay yo no puedo soportar no me quiero derrumbar
F                  C   G                Am
Mándame un mensaje, una señal, manda una señal de amor
Em              Am
Manda una señal amor...



PUENTE: C  G  Am  G
e|-------5-----------------10h12B?--            
B|-----------8----------------------       
G|--------5---5-5----10/12----------    
D|----7-----------------------------           
A|---7------------------------------         
E|--5-------------------------------            


e|--12-10----10-12-10------------------------------|          
B|--------13--------------13h15-15-13--------------|     
G|---------------------12--------------10-9?7-5-5--|  
D|----------------------14-------------10-107-5-5--|          
A|-------------------------------------------------|        
E|-------------------------------------------------|          



   C                Am                     Em        G
Te veo acorralada de unos brazos que no te dejan mover
   C                Am                     Em        G
Te deseo me deseas pero estas muy aprisionada corazón
   Am     G       C
Y no viviré sin tu amor
   Am       G        C        Cm        G
Y no pararé hasta tener tu amor y tus besos...



 C                      Am                            Em    G
Hey estoy viviendo sin vivir estoy muriendo sin poder morir
 C                     Am                      Em    G
Hey dime dime tell me too cuando seas libre mi amor
F                    C   G                  Am
Hay no lo puedo soportar no me quiero derrumbar
F                          C   G               Am
Mándame un mensaje, una señal, mándame tu luz amor
Em                Am
Manda una señal amor...



e|-------5-----------55--|   e|----5-------- X3   ----5------|     
B|-----------8-------55--|   B|--------8----      ---------8-|     
G|---------5---5-5---55--|   G|------5---5-5      -------5?--|     
D|----7--------------77--|   D|--7----------      --7--------|         
A|---7---------------77--|   A|-7-----------      -7---------|           
E|--5----------------55--|   E|5------------      5----------|          

SOLO: Am  F  C   G   
e|---------------------------------------------| X2
B|-8-8------8-8------8-8-----------------------|
G|-----10-9-----10-9-----10-9----------9-10-9--|    
D|----------------------------12-10-12---------|
A|---------------------------------------------|
E|---------------------------------------------|



 Am            F           C            G
Vivir sin ti vivir estarse muriendo sin morir
 Am            F           C            G
Estar sin ti estar estarse muriendo sin morir
 Am            F           C            G
Amor donde estarás manda un mensaje una señal
 Am        F            C         G	     F  C  G	    
Y no no parare no viviré sin ti amor,  no.....  



SOLO: Am  F  C  G    
e|---------------------------------------------| 
B|-8-8------8-8------8-8-----------------------|
G|-----10-9-----10-9-----10-9----------9-10-9--|    
D|----------------------------12-10-12---------|
A|---------------------------------------------|
E|---------------------------------------------|

Fuente: Tusacordes