a b c d e f g h i j k l m n o p q r s t u v w x y z 0-9

Manda Una Señal

Mana

			
Intro:
C G Am G

e|---3-3-3-3-3-3----------|
B|---3-3-3-3-3-3----------|
G|---4-4-4-4-4-4----------|
D|---5-5-5-5-5-5----------|
A|------------------------|
E-------------------------|

    C
Te quiero si te quiero
    G                            Am     G
voy andando como fiera tras tus pies amor
    C                     G
Te veo y te deseo pero tu
                                  Am   G
tienes tu dueño y no te puedes safar

    Am       G        C
Los dias se pasan sin ti
     Am         G        C
Las noches se alargan sin ti
      Dm              G
Sin tu amor sin tus besos

  C                  Am                       Em   G
Ay si tuvieras libertad a tu lado yo estaria amor

e------------------------------------------------|
b------------------------------------------------|
g----9-9-9--7-7-9-9-7-9/10-10-9-9--7-7-----------|
d----------------------------------------10-9----|
a------------------------------------------------|
e------------------------------------------------|

  C                  Am                       Em   G
Hey dame dame una señal cuando seas libre mi amor

e------------------------------------------------|
b------------------------------------------------|
g----9-9-9--7-7-9-9----------9-9-9--7-7-9-9------|
d-------------------10----------------------10---|
a------------------------------------------------|
e------------------------------------------------|

e------------------------------------------------|
b------------------------------------------------|
g----9-9-9--7-7-9-9-7-9/10-10-9-9--7-7-----------|
d----------------------------------------10-9----|
a------------------------------------------------|
e------------------------------------------------|


F                   C    G                  Am
Hay yo no puedo soportar no me quiero derrumbar

e---------------------------------------------|
b------1----------1------------0------------1-|
g--------2-----------0-----------0------4-----|
d---3-----------------------------------------|
a----------------3----------------------------|
e----------------------------3----------------|


F                      C     G                  Am
Mandame un mensaje una señal manda una señal de amor

e---------------------------------------------|
b------1----------1------------0------1-------|
g--------2-----------0-----------0------4-----|
d---3-------------------------------------5---|
a----------------3----------------------------|
e----------------------------3----------------|

Em              Am
manda una señal amor

e-------------0---------|
b-----0-------1---------|
g-------0-----2---------|
d-------------2---------|
a-----------------------|
e---0-------------------1

C G Am G

e------5---/-----------/------------/
B----------/--------8--/------------/
G----5-----/-----5-----/---------5--/
D--7-------/--7--------/------5-----/
A----------/-----------/---7--------/
E----------/-----------/------------/

           C                          G                    Am
e-------/--10h12--12--12--10--8----/--10--12--10-----------10-/
B--8--8-/--------------------------/----------------8---------/
G-------/--------------------------/------------------9-------/
D-------/--------------------------/--------------------------/
A-------/--------------------------/--------------------------/
E-------/--------------------------/--------------------------/

          G
e---8--------------------/
B--------8---------------/
G----------9h10--9--7--5-/
D------------------------/
A------------------------/
E------------------------/

   C                      G                       Am   G
Te veo acorralada de unos brazos que no te dejan mover
   C                       G                      Am   G
te deseo me deseas pero estas muy aprisionada corazon
    Am      G        C
Y no vivire sin tu amor
    Am      G         C       Dm        G
Y no parare hasta tener tu amor y tus besos

 C                      Am                            Em    G
Hey estoy viviendo sin vivir estoy muriendo sin poder morir

e------------------------------------------------|
b------------------------------------------------|
g----9-9-9--7-7-9-9-7-9/10-10-9-9--7-7-----------|
d----------------------------------------10-9----|
a------------------------------------------------|
e------------------------------------------------|

 C                    Am                       Em   G
Hey dime dime tell me too cuando seas libre mi amor

e------------------------------------------------|
b------------------------------------------------|
g----9-9-9--7-7-9-9----------9-9-9--7-7-9-9------|
d-------------------10----------------------10---|
a------------------------------------------------|
e------------------------------------------------|

e------------------------------------------------|
b------------------------------------------------|
g----9-9-9--7-7-9-9-7-9/10-10-9-9--7-7-----------|
d----------------------------------------10-9----|
a------------------------------------------------|
e------------------------------------------------|

F                    C   G                  Am
Hay no lo puedo soportar no me quiero derrumbar

e---------------------------------------------|
b------1----------1------------0------------1-|
g--------2-----------0-----------0------4-----|
d---3-----------------------------------------|
a----------------3----------------------------|
e----------------------------3----------------|

F                      C     G              Am
Mandame un mensaje una señal mandame tu luz amor

e---------------------------------------------|
b------1----------1------------0------1-------|
g--------2-----------0-----------0------4-----|
d---3-------------------------------------5---|
a----------------3----------------------------|
e----------------------------3----------------|

Em              Am
manda una señal amor

e-------------0---------|
b-----0-------1---------|
g-------0-----2---------|
d-------------2---------|
a-----------------------|
e---0-------------------1


Am F C G

e------5--------------------------
B------------------8--------------
G----5----------5--------------5--
D--7---------7--------------5-----
A------------------------7---------
E---------------------------------
Am
e------5--------------------------
B------------------8--------------
G----5----------5--------------5--
D--7---------7--------------5-----
A-------------------------7-------
E---------------------------------

e-----------------5-----------------
B-------------------------8---------
G---------------5-------5--------5--
D--------5----7-------7--------5----
A--7-5/7----8----------------7------
E-----------------------------------

e---------------5-------------------
B------------------------8----------
G-------------5-------5----------5--
D-----------7-------7----------5----
A--8-7-5---------------------7------
E---------8-------------------------


e---------------7-------------3-3-3-3-3-3-3---
B--------------------8--------3-3-3-3-3-3-3---
G-------------5----5-------5--4-4-4-4-4-4-4---
D-----------7----7-------5----5-5-5-5-5-5-5---
A?7/5------------------7------5-5-5-5-5-5-5---
E-----8-5-7-------------------3-3-3-3-3-3-3---

Solo distorcion
e----------------------------------
B--8--8---------8--8---------------
G--10-10--10-9--10-10-10-9---------
D----------------------------------
A----------------------------------
E----------------------------------
 G
e----------------------------------
B----------------------------------
G---------------10-9---------------
D--12-10-12-10---------------------
A----------------------------------
E----------------------------------
   Am         F         C
e----------------------------------
B--8--8---------8--8---------------
G--10-10--10-9--10-10-10-9---------
D----------------------------------
A----------------------------------
E----------------------------------
 G
e----------------------------------
B----------------------------------
G---------------10-9---------------
D--12-10-12-10---------------------
A----------------------------------

  Am           F            C           G
Vivir sin ti vivir estarse muriendo sin morir

  Am           F            C            G
Estar sin ti estar estarse muriendo sin morir

e------------------------------------
b------------------------------------
g-----------9-10-9-------------------
d--12-10-12--------------------------
a------------------------------------
e------------------------------------

  Am           F              C          G
Amor donde estaras manda un mensaje una señal

e------------------------------------
b------------------------------------
g-----------9-10-9-------------------
d--12-10-12--------------------------
a------------------------------------
e------------------------------------

  Am        F           C        G     Am
Y no no parare no vivire sin ti amor   no

e------------------------------------
b------------------------------------
g-----------9-10-9-------------------
d--12-10-12--------------------------
a------------------------------------
e------------------------------------

outro

F C G Am

e----------------------------------
B--8--8---------8--8---------------
G--10-10--10-9--10-10-10-9---------
D----------------------------------
A----------------------------------
E----------------------------------
 G
e----------------------------------
B----------------------------------
G---------------10-9---------------
D--12-10-12-10---------------------
A----------------------------------
   Am         F         C
e----------------------------------
B--8--8---------8--8---------------
G--10-10--10-9--10-10-10-9---------
D----------------------------------
A----------------------------------
E----------------------------------
 G
e----------------------------------
B----------------------------------
G---------------10-9---------------
D--12-10-12-10---------------------
A----------------------------------

Fuente: Tusacordes