a b c d e f g h i j k l m n o p q r s t u v w x y z 0-9

Manda Una Señal

Mana

			
solo 1 
C              G               Am           G
|----10h12-12^-|-10-8-10-12-10-|------10^-8-|---------------|
|--------------|---------------|--8---------|---------------|
|-12-----------|---------------|----9-------|-9h10-9-9-7-7-5|
|--------------|---------------|------------|---------------|
|--------------|---------------|------------|---------------|
|--------------|---------------|------------|---------------|




|---------5----|---------3-----|------------|---------------|
|--------------|---------------|---------3--|---------------|
|----7---------|------5--------|------5-----|---------------| x2
|--7---7-------|---5-----------|---5--------|---------------|
|--------------|---------------|------------|---------------|
|--------------|---------------|------------|---------------|




solo 2
Am             F               C            G
|--------------|---------------|------------|---------------|
|-8---8----6-5-|--8---8----6-5-|-8---8--6-5-|--------5-6-5--|
|-11^-11^------|-11^-11^-------|-11^-11^----|-7-5-7---------| x2
|--------------|---------------|------------|---------------|
|--------------|---------------|------------|---------------|
|--------------|---------------|------------|---------------|

Fuente: Tusacordes