a b c d e f g h i j k l m n o p q r s t u v w x y z 0-9

Manda Una Señal

Mana

			
Intro
E|--------------------55555555--------3~--|
A|--33333330-22222222----------2222222----|
D|----------------------------------------|
G|----------------------------------------|

Te quiero
E|--------------------55555555-------------|
A|--33333330-22222222----------22222222----| x2
D|-----------------------------------------|
G|-----------------------------------------|

Los dias...
E|--3-5555-3333-------|
A|--------------38--|
D|--------------------|
G|--------------------|

Las noches...
E|-3-54-74-84-104-76--3-3-3---------|
A|-----------------------------------3-5------|
D|--------------------------------------3-5---|
G|--------------------------------------------|

Ay si tuvieras libertad
E|-88-58-----88-------|
A|-----------78-----------|
D|--------------------5/7-5-|
G|--------------------------|

Hey dame dame una señal
E|-88-58-----88-----------|
A|-----------78----------7-5--|
D|--------------------5/7-5-----|
G|------------------------------|

Hay no lo puedo...
E|---------8710--38-58---------|
A|--8710---------------------------|
D|----------------------------5/7-7--|
G|-----------------------------------|

Mandame un mensaje...
E|-----------8710--36----58-08-|------5-|
A|--86----------------3/55-----------|-----5--|
D|-----8/1010--------------------------|5h7-7---|
G|-------------------------------------|--------|

1mer solo
E|--------------------55555555-------------|
A|--33333333-22222222----------22222222----|
D|-----------------------------------------|
G|-----------------------------------------|

Te veo Acorralada
E|--------------------55555555-------------|
A|--33333330-22222222----------22222222----| x2
D|-----------------------------------------|
G|-----------------------------------------|

Y no vivire sin...

E|-3-54-74-88-|
A|------------------|
D|------------------|
G|------------------|

Y no parare
E|-3-54-74-84-104-76--3-3-3---------|
A|-----------------------------------3-5------|
D|--------------------------------------3-5---|
G|--------------------------------------------|

Hey estoy viviendo...

E|-88-58-----88----------|
A|-----------78----------7-5-|
D|--------------------5/7-5----|
G|-----------------------------|
Hey dime...
E|-88-58-----88----------|
A|-----------78--------------|
D|--------------------5/7--7-5-|
G|-----------------------5-----|

Hay no lo puedo...
E|---------8710--38-58-5-75---------|
A|--8710------------------------5/7-----|
D|------------------------------------5-7-|
G|----------------------------------------|

Mandame
E|-----------8710--36----58-08-|
A|--86----------------3/55-----------|
D|-----8/1010--------------------------|
G|-------------------------------------|


el bajo y la guitarra asen esto
E|--5-5--|
A|--7-7--|
D|-------|
G|-------|


E|--------------|--------------|----------------|
A|--------------|--------------|----------12----|
D|---------|----|--------12-10-|-10/12-10----9--|  |
G|--7/9-12-|-10-|-9/10-9-------|----------------|  |
           |                                       |
           |_ _ solo se toka desde aki_ _ _ _ _ _ _|

pero suena bien si lo ases todo

intro para solo de guitarra con distorsion
E|---------------|
A|-------5555----|
D|--55---------|
G|---------------|

solo Guitarra
E|-58-18-1/887-78-|
A|------------------------|
D|------------------------|x2
G|------------------------|

Vivir sin ti vivir...
E|-58------88-78-|
A|------88-----------|
D|---------------------|
G|---------------------|

Estar sin ti estar...
E|-58------88-78----|
A|------88--------------|
D|--------------------3/5-|
G|------------------------|

Amor donde estaras...
E|-58------88-78-3-3-3-|
A|------88----------------0|
D|---------------------------|
G|---------------------------|

Y no...
E|-57---------8710-78-|
A|------5/887-------------|
D|--------------------------|
G|--------------------------|

2do solo de guitarra con distorsion
E|-57--18-1/887-78-|
A|----7--------------------|
D|-------------------------|
G|-------------------------|

E|--------------------------|
A|--7-810-8-10-----10-8888--|
D|------------7-8-----------|esto es muy rapido
G|--------------------------|

E|-57--18-1/887-7|--3----|----|
A|----7----------------|-2-3-43|-0~-|
D|---------------------|-------|----|
G|---------------------|-------|----|

Fuente: tusacordes.com