a b c d e f g h i j k l m n o p q r s t u v w x y z 0-9

Manda Una Señal

Mana

			
Manda un señal SOLO:

eI------------------------------------------|
BI-8-8-6-5-8-8-6-5-8-8-6-5---------5-6-5----|
GI-7-7-----7-7-----7-7-----5-7-5-7----------|
DI------------------------------------------|
AI------------------------------------------|
EI------------------------------------------|


Intro:
C G Am G

    C
Te quiero si te quiero
    G                            Am     G
voy andando como fiera tras tus pies amor
    C                     G
Te veo y te deseo pero tu
                                  Am   G
tienes tu dueño y no te puedes safar

    Am       G        C
Los dias se pasan sin ti
     Am         G        C
Las noches se alargan sin ti
      Dm              G
Sin tu amor sin tus besos

  C                  Am                       Em   G
Ay si tuvieras libertad a tu lado yo estaria amor
  C                  Am                       Em   G
Hey dame dame una señal cuando seas libre mi amor
F                   C    G                  Am
Hay yo no puedo soportar no me quiero derrumbar
F                      C     G                  Am
Mandame un mensaje una señal manda una señal de amor
Em              Am
manda una señal amor

C G Am G

e|--7-7/12-12-12---12-10-10-12-10---------10/12-12--10/0--------------|
B|----------------------------------12-10--------------------9-7-5-3--|
G|-----------------------------------------------------------9-7-5-3--|


   C                      G                       Am   G
Te veo acorralada de unos brazos que no te dejan mover
   C                       G                      Am   G
te deseo me deseas pero estas muy aprisionada corazon
    Am      G        C
Y no vivire sin tu amor
    Am      G         C       Cm        G
Y no parare hasta tener tu amor y tus besos

 C                      Am                            Em    G
Hey estoy viviendo sin vivir estoy muriendo sin poder morir
 C                    Am                       Em   G
Hey dime dime tell me too cuando seas libre mi amor
F                    C   G                  Am
Hay no lo puedo soportar no me quiero derrumbar
F                      C     G              Am
Mandame un mensaje una señal mandame tu luz amor
Em              Am
manda una señal amor


Am F C G4 veces
riff
e|---------------------------------------------------------------------|
B|---------------------------------------------------------------------|
G|--12-12--10-9-----12-12--10-9-----12-12--10-9---------------9-10-9---|
D|--------------------------------------------------12-10-12-----------|
2 veces


  Am           F            C           G
Vivir sin ti vivir estarse muriendo sin morir
  Am           F            C            G
Estar sin ti estar estarse muriendo sin morir
  Am           F              C          G
Amor donde estaras manda un mensaje una señal
  Am        F           C        G     Am  F C G
Y no no parare no vivire sin ti amor   no

e|---------------------------------------------------------------------|
B|---------------------------------------------------------------------|
G|--12-12--10-9-----12-12--10-9-----12-12--10-9---------------9-10-9---|
D|--------------------------------------------------12-10-12-----------|








Fuente: tusacordes.com