a b c d e f g h i j k l m n o p q r s t u v w x y z 0-9

Lluvia Al Corazon

Mana

			
intro:F#m D E C#m
e---------------------------------------------------------
B---------------------------------------------------------
G-6-6-6-6-6-6-6/6-6-6-6-6-6-6/9-9-9-9-9-9-9/6-6-6-6-6-6-6-
D-4-4-4-4-4-4-4/7-7-7-7-7-7-7/9-9-9-9-9-9-9/6-6-6-6-6-6-6-
A-4-4-4-4-4-4-4/5-5-5-5-5-5-5/7-7-7-7-7-7-7/4-4-4-4-4-4-4-
E---------------------------------------------------------
                                         
Por qué lloras mi amor Qué te fluye en la piel
Te despiertas en el llanto
e---------------------------------------------------------
B---------------------------------------------------------
G-6-6-6-6-6-6-6/6-6-6-6-6-6-6/9-9-9-9-9-9-9/6-6-6-6-6-6-6-
D-4-4-4-4-4-4-4/7-7-7-7-7-7-7/9-9-9-9-9-9-9/6-6-6-6-6-6-6-
A-4-4-4-4-4-4-4/5-5-5-5-5-5-5/7-7-7-7-7-7-7/4-4-4-4-4-4-4-
E---------------------------------------------------------
Con espantos de dolor Son los monstruos del ayer
Son tus miedos corazón Sabes bien que yo te amo
e---------------------------------------------------------
B---------------------------------------------------------
G-6-6-6-6-6-6-6/6-6-6-6-6-6-6/9-9-9-9-9-9-9/6-6-6-6-6-6-6-
D-4-4-4-4-4-4-4/7-7-7-7-7-7-7/9-9-9-9-9-9-9/6-6-6-6-6-6-6-
A-4-4-4-4-4-4-4/5-5-5-5-5-5-5/7-7-7-7-7-7-7/4-4-4-4-4-4-4-
E---------------------------------------------------------
Y te pido tengas fe No sufras más no mi bebe
Eres la mariposa 
e---------------------------------------------------------
B---------------------------------------------------------
G-6-6-6-6-6-6-6/6-6-6-6-6-6-6/9-9-9-9-9-9-9/6-6-6-6-6-6-6-
D-4-4-4-4-4-4-4/7-7-7-7-7-7-7/9-9-9-9-9-9-9/6-6-6-6-6-6-6- guitarra 1
A-4-4-4-4-4-4-4/5-5-5-5-5-5-5/7-7-7-7-7-7-7/4-4-4-4-4-4-4-
E---------------------------------------------------------

e-5-----7--4------
B-7-----7--5------
G----------------- guitarra 2
D-----------------
A-----------------
E-----------------
Que vuela hacia el huracán Cuéntame de tu pesar
Suelta todo tu dolor, dímelo
e---------------------------------------------------------
B---------------------------------------------------------
G-6-6-6-6-6-6-6/6-6-6-6-6-6-6/9-9-9-9-9-9-9/6-6-6-6-6-6-6- guitarra 1 
D-4-4-4-4-4-4-4/7-7-7-7-7-7-7/9-9-9-9-9-9-9/6-6-6-6-6-6-6-
A-4-4-4-4-4-4-4/5-5-5-5-5-5-5/7-7-7-7-7-7-7/4-4-4-4-4-4-4-
E---------------------------------------------------------

e---5---7-4-2---
B-7-7---7-5-5--- guitarra 2
G---------------
D---------------
A---------------
E---------------
PRECORO:
F#m         D
Aaaaaaaaa amor
e-9--x-9--x-9--x-9--x-10-x-10-x-10-x-10-------
B-10-x-10-x-10-x-10-x-10-x-10-x-10-x-10-------
G-11-x-11-x-11-x-11-x-11-x-11-x-11-x-11------- entra la guitarra acustica 
D--------------------------------------------- esto lo hace la electrica
A---------------------------------------------
E---------------------------------------------
      E             C#m
Un huracán y una mariposa
e-12-x-12-x-12-x-12-x-9-x-9-x-9-x-9-x-
B-12-x-12-x-12-x-12-x-9-x-9-x-9-x-9-x-
G-13-x-13-x-13-x-13-x-9-x-9-x-9-x-9-x-
D-------------------------------------
A-------------------------------------
E-------------------------------------
          F#m              D           E
Llegan se dan la cara  En medio de la mar
e-9--x-9--x-9--x-9--x-10-x-10-x-10-x-10-------
B-10-x-10-x-10-x-10-x-10-x-10-x-10-x-10-------
G-11-x-11-x-11-x-11-x-11-x-11-x-11-x-11-------  
D--------------------------------------------- 
A---------------------------------------------
E---------------------------------------------

e-12-x-12-x-12-x-12-x-12-x-12-x-12--
B-12-x-12-x-12-x-12-x-12-x-12-x-12--
G-13-x-13-x-13-x-13-x-13-x-13-x-13--
D-----------------------------------
A-----------------------------------
E----------------------------------- 
CORO:
 A          F#m     D            E
Lluvia de esperanza lluvia al corazon
e-9--X-9--X-9--X-9--X-9--X-9--X-9--X-9--X-
B-10-X-10-X-10-X-10-X-10-X-10-X-10-X-10-X-
G-9--X-9--X-9--X-9--X-11-X-11-X-11-X-11-X- GUITARRA 1 
D-----------------------------------------
A-----------------------------------------
E-----------------------------------------

e-10-X-10-X-10-X-10-X-12-X-12-X-12-X-12-X--
B-10-X-10-X-10-X-10-X-12-X-12-X-12-X-12-X--
G-11-X-11-X-11-X-11-X-13-X-13-X-13-X-13-X--
D------------------------------------------
A------------------------------------------
E------------------------------------------

e-----0-------0-----------4---------
B------0-------0----7---------------
G--4-4------4-----4--4--4--4-------- GUITARRA 2 
D-7-7---7--7-7---7-7---7-7----------
A-----------------------------------
E-----------------------------------
         A                F#m      D                   E
Siempre ahí estaré No te fallaré Desde el cielo lluvia al corazón
e-9--X-9--X-9--X-9--X-9--X-9--X-9--X-9--X-
B-10-X-10-X-10-X-10-X-10-X-10-X-10-X-10-X-
G-9--X-9--X-9--X-9--X-11-X-11-X-11-X-11-X- GUITARRA 1 
D-----------------------------------------
A-----------------------------------------
E-----------------------------------------

e-10-X-10-X-10-X-10-X-12-X-12-X-12-X-12-X--
B-10-X-10-X-10-X-10-X-12-X-12-X-12-X-12-X--
G-11-X-11-X-11-X-11-X-13-X-13-X-13-X-13-X--
D------------------------------------------
A------------------------------------------
E------------------------------------------

e-----0-------0-----------4---------
B------0-------0----7---------------
G--4-4------4-----4--4--4--4-------- GUITARRA 2 
D-7-7---7--7-7---7-7---7-7----------
A-----------------------------------
E-----------------------------------
           A             F#m      D             E
Sol que lanza la esperanza   La esperanza y la luz
e-9--X-9--X-9--X-9--X-9--X-9--X-9--X-9--X-
B-10-X-10-X-10-X-10-X-10-X-10-X-10-X-10-X-
G-9--X-9--X-9--X-9--X-11-X-11-X-11-X-11-X- GUITARRA 1 
D-----------------------------------------
A-----------------------------------------
E-----------------------------------------

e-10-X-10-X-10-X-10-X-12-X-12-X-12-X-12-X--
B-10-X-10-X-10-X-10-X-12-X-12-X-12-X-12-X--
G-11-X-11-X-11-X-11-X-13-X-13-X-13-X-13-X--
D------------------------------------------
A------------------------------------------
E------------------------------------------

e-----5-----5------5------7-----
B---5--5--5--5---5--5---5--5----
G-/6-6---6-6----2-2---/4-4------
D------------------------------- GUITARRA 2
A-------------------------------
E-------------------------------
                    A             F#m      D
No importa lo que pase No importa jamás no no
E            A
Lluvia al corazón
e-9--X-9--X-9--X-9--X-9--X-9--X-9--X-9--X-
B-10-X-10-X-10-X-10-X-10-X-10-X-10-X-10-X-
G-9--X-9--X-9--X-9--X-11-X-11-X-11-X-11-X- GUITARRA 1 
D-----------------------------------------
A-----------------------------------------
5E-----------------------------------------

e-10-X-10-X-10-X-10-X-12-X-12-X-12-X-12-X-------
B-10-X-10-X-10-X-10-X-12-X-12-X-12-X-12-X-------
G-11-X-11-X-11-X-11-X-13-X-13-X-13-X-13-X-------
D-----------------------------------------x-x-7-
A-----------------------------------------x-x-7-
E-----------------------------------------x-x-5-

e-----5-----5------5------7--------
B---5--5--5--5---5--5---5--5-------
G-/6-6---6-6----2-2---/4-4--------- GUITARRA 2 
D----------------------------X-X-7-
A----------------------------X-X-7-
E----------------------------X-X-5-

INTRO:LO MISMO DEL INTRO ANTERIOR
  
F#m            D               E
Fluye la desilusión Muda desesperación
                  C#m
Pero todo tiene alivio
e---------------------------------------------------------
B---------------------------------------------------------
G-6-6-6-6-6-6-6/6-6-6-6-6-6-6/9-9-9-9-9-9-9/6-6-6-6-6-6-6-
D-4-4-4-4-4-4-4/7-7-7-7-7-7-7/9-9-9-9-9-9-9/6-6-6-6-6-6-6-
A-4-4-4-4-4-4-4/5-5-5-5-5-5-5/7-7-7-7-7-7-7/4-4-4-4-4-4-4-
E---------------------------------------------------------
               F#m          D             E
Menos el decir adiós Y si te vas así yo moriré
                    C#m
Y te amarras a tu piano
e---------------------------------------------------------
B---------------------------------------------------------
G-6-6-6-6-6-6-6/6-6-6-6-6-6-6/9-9-9-9-9-9-9/6-6-6-6-6-6-6-
D-4-4-4-4-4-4-4/7-7-7-7-7-7-7/9-9-9-9-9-9-9/6-6-6-6-6-6-6-
A-4-4-4-4-4-4-4/5-5-5-5-5-5-5/7-7-7-7-7-7-7/4-4-4-4-4-4-4-
E---------------------------------------------------------
               F#m                 D
Y te vas al altamar Y te quieres escapar
                 E
Y te quieres diluir
      C#m
No mi amor
e---------------------------------------------------------
B---------------------------------------------------------
G-6-6-6-6-6-6-6/6-6-6-6-6-6-6/9-9-9-9-9-9-9/6-6-6-6-6-6-6-
D-4-4-4-4-4-4-4/7-7-7-7-7-7-7/9-9-9-9-9-9-9/6-6-6-6-6-6-6-
A-4-4-4-4-4-4-4/5-5-5-5-5-5-5/7-7-7-7-7-7-7/4-4-4-4-4-4-4-
E---------------------------------------------------------

F#m         D
Aaaaaaaaa amor
e-9--x-9--x-9--x-9--x-10-x-10-x-10-x-10-------
B-10-x-10-x-10-x-10-x-10-x-10-x-10-x-10-------
G-11-x-11-x-11-x-11-x-11-x-11-x-11-x-11------- entra la guitarra acustica 
D--------------------------------------------- esto lo hace la electrica
A---------------------------------------------
E---------------------------------------------
      E             C#m
Un huracán y una mariposa
e-12-x-12-x-12-x-12-x-9-x-9-x-9-x-9-x-
B-12-x-12-x-12-x-12-x-9-x-9-x-9-x-9-x-
G-13-x-13-x-13-x-13-x-9-x-9-x-9-x-9-x-
D-------------------------------------
A-------------------------------------
E-------------------------------------
          F#m              D           E
Llegan se dan la cara  En medio de la mar
e-9--x-9--x-9--x-9--x-10-x-10-x-10-x-10-------
B-10-x-10-x-10-x-10-x-10-x-10-x-10-x-10-------
G-11-x-11-x-11-x-11-x-11-x-11-x-11-x-11-------  
D--------------------------------------------- 
A---------------------------------------------
E---------------------------------------------

e-12-x-12-x-12-x-12-x-12-x-12-x-12--
B-12-x-12-x-12-x-12-x-12-x-12-x-12--
G-13-x-13-x-13-x-13-x-13-x-13-x-13--
D-----------------------------------
A-----------------------------------
E-----------------------------------

coro:
 A          F#m     D            E
Lluvia de esperanza lluvia al corazon
e-9--X-9--X-9--X-9--X-9--X-9--X-9--X-9--X-
B-10-X-10-X-10-X-10-X-10-X-10-X-10-X-10-X-
G-9--X-9--X-9--X-9--X-11-X-11-X-11-X-11-X- GUITARRA 1 
D-----------------------------------------
A-----------------------------------------
E-----------------------------------------

e-10-X-10-X-10-X-10-X-12-X-12-X-12-X-12-X--
B-10-X-10-X-10-X-10-X-12-X-12-X-12-X-12-X--
G-11-X-11-X-11-X-11-X-13-X-13-X-13-X-13-X--
D------------------------------------------
A------------------------------------------
E------------------------------------------

e-----0-------0-----------4---------
B------0-------0----7---------------
G--4-4------4-----4--4--4--4-------- GUITARRA 2 
D-7-7---7--7-7---7-7---7-7----------
A-----------------------------------
E-----------------------------------
         A                F#m      D                   E
Siempre ahí estaré No te fallaré Desde el cielo lluvia al corazón
e-9--X-9--X-9--X-9--X-9--X-9--X-9--X-9--X-
B-10-X-10-X-10-X-10-X-10-X-10-X-10-X-10-X-
G-9--X-9--X-9--X-9--X-11-X-11-X-11-X-11-X- GUITARRA 1 
D-----------------------------------------
A-----------------------------------------
E-----------------------------------------

e-10-X-10-X-10-X-10-X-12-X-12-X-12-X-12-X--
B-10-X-10-X-10-X-10-X-12-X-12-X-12-X-12-X--
G-11-X-11-X-11-X-11-X-13-X-13-X-13-X-13-X--
D------------------------------------------
A------------------------------------------
E------------------------------------------

e-----0-------0-----------4---------
B------0-------0----7---------------
G--4-4------4-----4--4--4--4-------- GUITARRA 2 
D-7-7---7--7-7---7-7---7-7----------
A-----------------------------------
E-----------------------------------
           A             F#m      D             E
Sol que lanza la esperanza   La esperanza y la luz
e-9--X-9--X-9--X-9--X-9--X-9--X-9--X-9--X-
B-10-X-10-X-10-X-10-X-10-X-10-X-10-X-10-X-
G-9--X-9--X-9--X-9--X-11-X-11-X-11-X-11-X- GUITARRA 1 
D-----------------------------------------
A-----------------------------------------
E-----------------------------------------

e-10-X-10-X-10-X-10-X-12-X-12-X-12-X-12-X--
B-10-X-10-X-10-X-10-X-12-X-12-X-12-X-12-X--
G-11-X-11-X-11-X-11-X-13-X-13-X-13-X-13-X--
D------------------------------------------
A------------------------------------------
E------------------------------------------

e-----5-----5------5------7-----
B---5--5--5--5---5--5---5--5----
G-/6-6---6-6----2-2---/4-4------
D------------------------------- GUITARRA 2
A-------------------------------
E-------------------------------
                    A             F#m      D
No importa lo que pase No importa jamás no no
E            A
Lluvia al corazón
e-9--X-9--X-9--X-9--X-9--X-9--X-9--X-9--X-
B-10-X-10-X-10-X-10-X-10-X-10-X-10-X-10-X-
G-9--X-9--X-9--X-9--X-11-X-11-X-11-X-11-X- GUITARRA 1 
D-----------------------------------------
A-----------------------------------------
E-----------------------------------------

e-10-X-10-X-10-X-10-X-12-X-12-X-12-X-12-X--
B-10-X-10-X-10-X-10-X-12-X-12-X-12-X-12-X--
G-11-X-11-X-11-X-11-X-13-X-13-X-13-X-13-X--
D------------------------------------------
A------------------------------------------
E------------------------------------------

e-----5-----5------5------7--------
B---5--5--5--5---5--5---5--5-------
G-/6-6---6-6----2-2---/4-4--------- GUITARRA 2 
D----------------------------X-X-7-
A----------------------------X-X-7-
E----------------------------X-X-5-

SOLO:
e--------------------
B--------------------
G--------------------
D--------------------
A-0-2-4------5-4-4-2-
E------2----2--------
A F#m D E 
e-----------------
B-----------------
G-----------------
D---------------2- GUITARRA 1
A-0-2-4------5----
E------2----------

e----------
B----------
G---------- GUITARRA 2 
D-X-X-X-X--
A-X-X-X-X--
E-X-X-X-X--
A F#m D E X2
e-----------------------------------------
B-----------------------------------------
G-----------------------------------------
D---------------------------------2------- GUITARRA 1 
A-0-2-4------5-4-4-2--0-2-4---5-----------
E------2----2---------------2-------------

e----------
B----------
G---------- GUITARRA 2 
D-X-X-X-X--
A-X-X-X-X--
E-X-X-X-X--

REPITE LOS RIFFS DE EL CORO 
 A     F#m          D            E
uoooo   uooooo La esperanza al corazón
    A     F#m        D            E
uooooo uooooo  La esperanza al corazón 
    A    F#m             D                      E  
uooooooo uoooooo Que te sane que te alivie el dolor
                    A             F#m    D
No importa lo que pase No importa jamás no no
         E        A
Lluvia al corazón

Fuente: Tusacordes